To celebrate the anniversary, I am giving you (finally...) : iPhone LickByNeck !!!!!!

Copacabana

Barry Manilow's hit fingerstyle chord melody guitar arrangement played in the key of Em.


http://classicalguitartablature.blogspot.com/
Copacabana played in the key of Em.
Classical Guitar Tablature http://classicalguitartablature.blogspot.com/
E|--------------------------------|--------------------------------|
B| 8------------ 8---- 8------ 7--| 6------------ 6---- 6---- 7-- 8|
G| 7-------------- 7-- 7------ 6--| 5------------ 5---- 5---- 6-- 7|
D| 5-------------- 5-- 5------ 4--| 3------------ 3---- 3---- 4----|
A| 7---- 7-------- 7-- 7------ 6--| 5-- 5-------- 5---- 5---- 6----|
E|-------- 7----------------------|-------- 5----------------------|
Classical Guitar Tablature http://classicalguitartablature.blogspot.com/
E|--------------------------------|---------------------------- 5--|
B|-------------- 8---- 8------ 7--| 6-- 7------ 8------ 5-- 8-- 6--|
G|-------------- 7---- 7------ 6--| 5---- 6---- 7------ 5-- 7-- 6--|
D| 5------------ 5---- 5---- 4----| 3---- 4---- 5------ 7-- 5------|
A| 7---- 7------ 7---- 7------ 6--| 5---- 6---- 7------ 8-- 7-- 6--|
E|-------- 7----------------------|--------------------------------|
Classical Guitar Tablature http://classicalguitartablature.blogspot.com/
E| 8------------------ 8 7---- 5 7|---------------------- 3---- 5 7|
B| 6-- 6--------------10 5---- 5 5|---- 5-------------- 5 5---- 510|
G| 5-- 5------ 5------10 4---- 4--| 4-- 4---- 4-------- 4 4---- 4 9|
D|------ 7---- 7------------------|---- 5------ 5------ 5----------|
A| 5---- 5--------10------ 4------| 3-- 3---------- 3--------------|
E|-------- 5----------------------|-------- 3-------------- 3------|
Classical Guitar Tablature http://classicalguitartablature.blogspot.com/
E|-- 8 7---- 8 7------------------|---------- 7---------- 5-- 7----|
B|--1010----10 7-------- 8------ 5|-- 7 8--1010---------- 5-- 7----|
G|-- 9 9---- 9 8---- 8---- 8 8----| 7 5 9-- 9-- 9-------- 6-- 6----|
D|------------------ 7-- 7---- 7--| 5 7 9-- 9-- 7------------------|
A| 9-------------------- 8--------| 7 6------------------------ 6--|
E|------ 8------ 7----------------|------10 9---- 8-- 7---- 5------|
Classical Guitar Tablature http://classicalguitartablature.blogspot.com/
E| 8------------------ 8 7---- 5 7|---------------------- 3---- 5 7|
B| 6-- 6--------------10 5---- 5 5|---- 5-------------- 5 5---- 510|
G| 5-- 5------ 5------10 4---- 4--| 4-- 4---- 4-------- 4 4---- 4 9|
D|---- 7------ 7------------------|---- 5------ 5------ 5----------|
A| 5-- 5----------10------ 4------| 3-- 3---------- 3--------------|
E|-------- 5----------------------|-------- 3-------------- 3------|
Classical Guitar Tablature http://classicalguitartablature.blogspot.com/
E|-- 8 7---- 8 7------------------|---------- 7--------------------|
B|--1010----10 7-------- 8------ 5|-- 7 8--1010-------- 8 5------ 4|
G|-- 9 9---- 9 8---- 8---- 8 8----| 7 5 9-- 9-- 9------ 8 6---- 4 5|
D|------------------ 7-- 7---- 7--| 5 7 9-- 9-- 7------ 7 5---- 3 4|
A| 9-------------------- 8--------| 7 6----------------------------|
E|------ 8------ 7----------------|------10 9---- 8---- 7-- 6-- 4--|
Classical Guitar Tablature http://classicalguitartablature.blogspot.com/
E|--------------------------------|--------------------------------|
B|------ 7---- 5---- 8-- 5--------| 4---- 7---- 8---------- 5------|
G|------ 8---- 7------ 9-- 6-- 4--| 5---- 8---- 7---------- 7-- 4--|
D|------ 7---- 5------ 7-- 5-- 3--| 4---- 7---- 5---------- 6-- 3--|
A|------------ 7------------------|------------ 7------------------|
E| 5---- 7------------ 8-- 6-- 4--| 5---- 7---------------- 6-- 4--|
Classical Guitar Tablature http://classicalguitartablature.blogspot.com/
E|--------------------------------| 7------ 7------ 7------ 5 7----|
B|---- 5-- 7-- 8--10--10--10--10--| 8------ 7------ 5------ 5-- 7--|
G| 5 7 5-- 6------ 8-- 9--11-- 8--| 7------ 5------ 4------ 4-- 6--|
D| 5------ 5------ 7-- 7-- 9--10--|--------------------------------|
A|---------------------------- 8--| 7------ 6------ 5------ 4-- 6--|
E| 5------ 6------ 7-- 9--11------|--------------------------------|
Classical Guitar Tablature http://classicalguitartablature.blogspot.com/
E| 8------------------ 8 7---- 5 7|--------------------------------|
B| 6-- 6--------------10 5---- 5 5|---- 5-------------------- 5----|
G| 5-- 5------ 5------10 4---- 4--| 4-- 4---- 4-- 4---- 4---- 4----|
D|------ 7---- 7------------------|---- 5------ 5-- 5-- 5---- 5----|
A| 5---- 5--------10------ 4------| 3-- 3---------- 3-- 3----------|
E|-------- 5----------------------|-------- 3------------ 3--------|
Classical Guitar Tablature http://classicalguitartablature.blogspot.com/
E|------------ 5-- 8-- 7------ 5--| 7------------------ 7---- 5----|
B| 6-- 8------ 8--10-- 6------ 6--| 5-- 5-------------- 6---- 6----|
G| 5-- 5------ 5--10-- 7------ 7--| 4-- 4------ 4-- 4-- 6---- 6----|
D| 7-- 7--------------------------|---- 5------ 5-- 5--------------|
A| 5-- 5----------10------ 5------| 3-- 3---------- 3---------- 6--|
E|-------- 5----------------------|-------- 3---------- 5----------|
Classical Guitar Tablature http://classicalguitartablature.blogspot.com/
E| 8------------------ 8 7---- 5 7|---- 7------ 5---------------- 8|
B| 6-- 6--------------10 5---- 5 8|---- 8------ 8------ 5------ 5 6|
G| 5-- 5------ 5------10 4---- 4 7|---- 7------ 7------ 6------ 3--|
D|------ 7---- 7------------------|-------------------- 5------ 5--|
A| 5---- 5--------10------ 4---- 7|------------------------ 4------|
E|-------- 5----------------------|------ 6------ 5----------------|
Classical Guitar Tablature http://classicalguitartablature.blogspot.com/
E|---- 7---- 8-- 7---- 5------ 7--|------------ 5-- 7-- 3-- 5-- 7--|
B|---- 6---- 6-- 5---- 5------ 810|---- 8------ 8-- 5-- 2-- 8-- 7--|
G| 5-- 5---- 5---- 4-- 4------ 7--| 7-- 7------ 7-- 6-- 2-- 6-- 6--|
D|--------------------------------| 9-- 9--------------------------|
A| 5-- 5------------------ 8------| 7---- 7---------------- 7-- 6--|
E|------ 5-------- 3---- 3--------|-------- 6------ 5-- 3----------|
Classical Guitar Tablature http://classicalguitartablature.blogspot.com/
E| 8---------- 5------------------|--------------------------------|
B| 6---------- 3------------------|-------------- 5---- 4----------|
G| 5---------- 2---------- 5-- 6--| 8------------ 4---- 5------ 5--|
D| 5---------------------- 5-- 5--| 7------------ 5------ 4---- 7--|
A| 5-- 7-- 8----------------------|-------------- 3------ 6---- 8--|
E|------------ 2-- 3-- 4-- 5-- 6--| 7------------------------------|
Classical Guitar Tablature http://classicalguitartablature.blogspot.com/
E|--------------------------------|--------------------------------|
B|--------------------------------|--------------------------------|
G| 4-------------- 4-- 4------ 3--| 2------------ 2---- 2---- 3----|
D| 5-------------- 5-- 5------ 4--| 3-------------- 3-- 3---- 4----|
A| 7---- 7-------- 7-- 7------ 6--| 5---- 5-------- 5-- 5---- 6----|
E|-------- 7----------------------|-------- 5----------------------|
Classical Guitar Tablature http://classicalguitartablature.blogspot.com/
E|--------------------------------|--------------------------------|
B|--------------------------------|--------------------------------|
G| 4-------------- 4-- 4---- 3-- 2|---- 3------ 4------------------|
D| 5-------------- 5-- 5---- 4-- 3|---- 4------ 5------------------|
A| 7---- 7-------- 7-- 7---- 6----| 5-- 6------ 7------------------|
E|-------- 7----------------------|--------------------------------|

0 ความคิดเห็น:

แสดงความคิดเห็น