To celebrate the anniversary, I am giving you (finally...) : iPhone LickByNeck !!!!!!

Crazy

Classic Patsy Cline's hit fingerstyle solo guitar arrangement played in the key of Bb.


Crazy - PatsyCline played in the key of Bb.
Classical Guitar Tablature http://classicalguitartablature.blogspot.com/
E|------------------------------ 3|---------------------------- 5 6|
B| 3-------------------------- 6 3|---------------------- 3---- 6 8|
G| 3---- 3------------ 3---- 3 3 3|---- 3------ 3------ 1 1---- 3 7|
D| 3-- 3------ 3------ 5---- 5 6 5|---- 3---- 3------ 1------ 3----|
A|-------------------- 3 3-- 4 5 6|------ 5------ 3------ 1---- 5 6|
E| 6------------ 6-- 6------------|--------------------------------|
Classical Guitar Tablature http://classicalguitartablature.blogspot.com/
E|-------------- 5----------------|--------------------------------|
B|---- 8------ 4 6---- 6-------- 8|---- 4-------- 6---- 3------ 3--|
G|-- 7 7------ 3 5---- 7------ 7 8|---- 5------ 5 7---- 4------ 1--|
D|---- 8---- 5------ 7 7---- 6-- 8|-- 8 5---- 3 3---- 6 3---- 3----|
A|---- 5-- 3---- 5----------------|--------------------------------|
E|-------------------- 8 7--------| 8-- 6 4------ 7---- 4-- 1------|
Classical Guitar Tablature http://classicalguitartablature.blogspot.com/
E|--------------------------------|--------------------------------|
B| 4-------------- 3--------------|---------------------------- 2--|
G| 3-- 0------ 0-- 3---------- 7 3|---- 3 2---- 2 3---- 3 5---- 2--|
D| 2-- 3---- 3---- 4-- 7---- 7-- 3|-- 3 3---- 1------ 1------ 3 3--|
A| 1------------------------------|--------------------------------|
E| 2------ 3------ 4---- 5------ 6|------ 2------ 3------ 4---- 5--|
Classical Guitar Tablature http://classicalguitartablature.blogspot.com/
E|--------------------------------|-------------- 3----------------|
B| 3------------------------------|---- 0------ 3 3---- 6------ 3--|
G|---------- 3-------- 3------ 2 0|------------ 0 4---- 4------ 4--|
D|---- 3------ 3---- 4------ 1----|-- 3------ 0------ 3 3---- 3 3--|
A|--------------------------------|-------------- 5-------- 4------|
E| 6------ 5---- 4-------- 2---- 3|------ 1------------------------|
Classical Guitar Tablature http://classicalguitartablature.blogspot.com/
E|---- 3--------------------------|---------------------- 1------ 3|
B| 4-- 4-------------- 4----------|-------- 3-- 3-- 4-- 4 4------ 1|
G| 3---------- 7-- 5------ 3-- 3--| 5-- 5-- 5-- 5-- 3-- 3 3---- 3 2|
D|-- 5------ 6 6---- 5------ 1 4--|-- 3------ 3------ 1------ 1----|
A| 3------------------------------|--------------------------------|
E|-------- 7------ 6------ 3-- 4--| 5------ 4---- 3------ 2--------|
Classical Guitar Tablature http://classicalguitartablature.blogspot.com/
E|--------------------------------|---------------- 6--------------|
B|--------------------------------|---- 1---- 4---- 8----10-- 8----|
G|---- 2------ 2------ 2------ 5--| 2-- 3---- 3---- 6---- 9-- 8----|
D|---- 1---- 1------ 1------ 3----| 3-- 1---- 2---------- 8-- 7----|
A|--------------------------------|--------------------------------|
E| 1------ 2------ 3------ 4------| 5-- 3-- 2------ 0 9---- 7-- 7--|
Classical Guitar Tablature http://classicalguitartablature.blogspot.com/
E|--------------------------------|--------------------------------|
B| 6-- 6---- 6-- 6---- 6---- 6----| 1-- 1---- 2---- 3-- 1------ 2--|
G| 5-- 5---- 5-- 5---- 5---- 4----| 3-- 3---- 2---- 3-- 3 5-- 3 2--|
D| 5-- 5---- 5-- 4---- 4---- 3----| 1-- 1---- 1------ 1 1 3-- 3 3--|
A|--------------------------------|--------------------------------|
E| 6------ 5------ 4------ 3-- 3--| 2------ 1-- 1-- 2-- 3 4---- 5--|
Classical Guitar Tablature http://classicalguitartablature.blogspot.com/
E|--------------------------------|-------------- 3----------------|
B| 3------------------------------|---- 0------ 3 3---- 6------ 3--|
G|---------- 3-------- 3------ 2 0|------------ 0 4---- 4------ 4--|
D|---- 3------ 3---- 4------ 1----|-- 3------ 0------ 3 3---- 3 3--|
A|--------------------------------|-------------- 5-------- 4------|
E| 6------ 5---- 4-------- 2---- 3|------ 1------------------------|
Classical Guitar Tablature http://classicalguitartablature.blogspot.com/
E|---- 3--------------------------|---------------------- 1------ 3|
B| 4-- 4-------------- 4----------|-------- 3-- 3-- 4-- 4 4------ 1|
G| 3---------- 7-- 5------ 3-- 3--| 5-- 5-- 5-- 5-- 3-- 3 3---- 3 2|
D|-- 5------ 6 6---- 5------ 1 4--|-- 3------ 3------ 1------ 1----|
A| 3------------------------------|--------------------------------|
E|-------- 7------ 6------ 3-- 4--| 5------ 4---- 3------ 2--------|
Classical Guitar Tablature http://classicalguitartablature.blogspot.com/
E|--------------------------------|--------------------------------|
B|--------------------------------|---------- 1---- 4-- 3----------|
G|---- 2------ 2------ 2------ 5--|---- 2---- 3---- 2-- 3---- 5-- 3|
D|---- 1---- 1------ 1------ 3----| 3-- 3---- 1---- 1-- 1---- 3----|
A|--------------------------------|--------------------------------|
E| 1------ 2------ 3------ 4------| 5-- 3-- 2------ 1 3---- 5-- 5 6|
Classical Guitar Tablature http://classicalguitartablature.blogspot.com/
E|--------------------------------|------------------------------ 6|
B|------------ 3 4---- 6 8---- 911|---- 8 5---- 8 6-------------- 8|
G|------ 3---- 1 3-- 3 4 5---- 7 9|---- 6 3---- 6 3---- 3 6---- 7--|
D|-- 3------ 3 3---- 5 6---- 8 9--|--11 8---- 5 8---- 6------ 6 6--|
A|---- 3 5---- 2 3---- 5 6---- 810|---- 7 4---- 7 5------ 8---- 7--|
E|--------------------------------|--------------------------------|
Classical Guitar Tablature http://classicalguitartablature.blogspot.com/
E|--------------------------------|--------------------------------|
B|---- 8--------------------------|---- 4------ 8--11--10----------|
G| 7-- 7------ 7------ 8------ 8--| 3-- 3------ 8-- 9-- 9------1210|
D|-- 8 8---- 8------ 8------ 6----|-- 5------ 8---- 8 8 8----1111--|
A| 6------ 5----------------------|--------------------------------|
E|---------------- 8---- 7--------| 6---- 8-------- 9------12------|
Classical Guitar Tablature http://classicalguitartablature.blogspot.com/
E|--------------------------------|--------------------------------|
B|11------------------------------|--------------------------------|
G|----10------10------ 8------ 8--| 7-- 3-- 2-- 6-- 7-- 6-- 7-- 8--|
D| 8-- 8---- 8 8---- 6------ 6----|-- 6 3-- 2 2 5---- 6 5 6-- 6 7--|
A|--------------------------------|--------------------------------|
E|10------ 9------ 8------ 7------| 6-- 4-- 3-- 5-- 6-- 5-- 6-- 7--|
Classical Guitar Tablature http://classicalguitartablature.blogspot.com/
E| 6------------------------------|---------- 3---- 6---- 5-- 3----|
B| 5-- 8--------------------------| 1---- 5-- 4---- 8---- 6-- 6----|
G| 3 3 5------ 5---- 5-------- 5--| 3---- 3-- 1---- 7---- 6-- 5----|
D|---- 5---- 5-------- 3---- 3----| 2---- 2------------------------|
A| 3------------------------------|------------------ 6---- 5-- 5--|
E|-------- 6------ 5------ 4------| 3 2---- 1-- 0------------------|
Classical Guitar Tablature http://classicalguitartablature.blogspot.com/
E| 5---- 5------------------------|--------------------------------|
B| 5---------- 4-------------- 8 6|---- 6---------------------- 2--|
G| 3---- 3-- 3---- 7---------- 8 5|---- 5---- 5---- 3-- 3 5---- 5--|
D|-------------------- 6---- 8 8 3|---- 3------ 3-- 1-- 1 3---- 3--|
A| 4------ 3----------------------|--------------------------------|
E|---------------- 7------ 6------| 5------ 4------ 3---- 4---- 5--|
Classical Guitar Tablature http://classicalguitartablature.blogspot.com/
E|--------------------------------|-------------- 3----------------|
B| 3------------------------------|---- 0------ 3 3---- 6------ 3--|
G|---------- 3-------- 3------ 2 0|------------ 0 4---- 4------ 4--|
D|---- 3------ 3---- 4------ 1----|-- 3------ 0------ 3 3---- 3 3--|
A|--------------------------------|-------------- 5-------- 4------|
E| 6------ 5---- 4-------- 2---- 3|------ 1------------------------|
Classical Guitar Tablature http://classicalguitartablature.blogspot.com/
E|---- 3--------------------------|------------------------------ 6|
B| 4-- 4-------------- 4----------|-------- 3-- 3-- 4---- 1---- 1 8|
G| 3---------- 7-- 5------ 3-- 3--| 5-- 5-- 5-- 5-- 3-- 3 1---- 1 7|
D|-- 5------ 6 6---- 5------ 1 4--|-- 3------ 3------ 1 1---- 1 0--|
A| 3------------------------------|------------------------------ 6|
E|-------- 7------ 6------ 3-- 4--| 5------ 4------ 3-- 2 1---- 0--|
Classical Guitar Tablature http://classicalguitartablature.blogspot.com/
E|-------------- 5----------------|--------------------------------|
B|---- 8------ 4 6---- 6-------- 8|---- 4-------- 6---- 3------ 3--|
G|-- 7 7------ 3 5---- 7------ 7 8|---- 5------ 5 7---- 4------ 1--|
D|---- 8---- 5------ 7 7---- 6-- 8|-- 8 5---- 3 3---- 6 3---- 3----|
A|---- 5-- 3---- 5----------------|--------------------------------|
E|-------------------- 8 7--------| 8-- 6 4------ 7---- 4-- 1------|
Classical Guitar Tablature http://classicalguitartablature.blogspot.com/
E|--------------------------------|-------------------- 1------ 5 6|
B| 4-------------- 3--------------|------------ 3 4---- 1 8---- 6 8|
G| 3-- 0------ 0-- 3---------- 7--| 3---- 5---- 3 3---- 1 7---- 6 7|
D| 2-- 3---- 3---- 4-- 7---- 7-- 3|---------- 3 1---- 1 1---- 6----|
A| 1------------------------------|---------------------------- 5 6|
E| 2------ 3------ 4---- 5--------| 6-- 5 4---- 3 2---- 1 0--------|
Classical Guitar Tablature http://classicalguitartablature.blogspot.com/
E|-------------- 5----------------| 3-------------- 1--------------|
B|---- 8------ 4 6---- 6----------| 4-- 4------ 1-- 4-- 3------ 3--|
G|---- 7------ 4 7-- 7 7------ 7--| 5 5 5------ 3-- 3-- 1-- 5-- 3--|
D|-- 8 8---- 3-------- 6---- 5----|---- 4---- 1------ 1 1---- 6 4--|
A|---- 5 4------------------------|------------------------ 7-- 6--|
E|-------------- 8---- 7-- 6------| 5-- 4 3-------- 2-- 1----------|
Classical Guitar Tablature http://classicalguitartablature.blogspot.com/
E|--------------------------------|--------------------------------|
B| 4-------------- 3--------------|--------------------------------|
G| 3 4 3-- 0------ 5 4 3-- 2------| 3-------------- 2--------------|
D| 4 3 2-- 1 0---- 3 3 3-- 1------| 3-------------- 3--------------|
A|------------ 6-- 5 4-- 3 2 1 0--|--------------------------------|
E| 4 3 2-- 1 0--------------------| 4-------------- 5--------------|
Classical Guitar Tablature http://classicalguitartablature.blogspot.com/
E|--------------------------------|--------------------------------|
B|--------------------------------|--------------------------------|
G| 0------------------------------|--------------------------------|
D| 3------------------------------|--------------------------------|
A|--------------------------------|--------------------------------|
E| 6------------------------------|--------------------------------|
Classical Guitar Tablature http://classicalguitartablature.blogspot.com/

0 ความคิดเห็น:

แสดงความคิดเห็น