To celebrate the anniversary, I am giving you (finally...) : iPhone LickByNeck !!!!!!

Dan Yuan Ren Chang Jiu (EASY)

Popular Chinese hit fingerstyle solo guitar easy arrangement played in the key of G.

You need to install the Flash plugin - http://www.webestools.com/

Dan Yuan Ren Chang Jiu played in the key of G.
Classical Guitar Tablature http://classicalguitartablature.blogspot.com/
E|------ 3-- 2------ 0------------|--------------------------------|
B|------ 3-- 3------ 3------ 3----|---------------------- 3--------|
G|--------------------------------|------ 2------ 0------------ 0--|
D|---- 0---------------- 0--------|---- 0---- 0------ 0------------|
A|--------------------------------|--------------------------------|
E| 3------------------------------|--------------------------------|
Classical Guitar Tablature http://classicalguitartablature.blogspot.com/
E|-------- 3-- 2------ 0----------|------------------------------ 3|
B|-------- 3-- 3------ 3------ 3--|------------------------------ 3|
G|--------------------------------|------------------------------ 0|
D|---- 0------------------ 0------|--------------------------------|
A|--------------------------------|--------------------------------|
E| 3------------------------------|--------------------------------|
Classical Guitar Tablature http://classicalguitartablature.blogspot.com/
E|------ 3-- 0---------- 0-- 3-- 3|------------------------------ 3|
B|------ 3-- 3-- 3------ 3-- 3-- 3|---------- 3------------------ 1|
G|-------------- 0-------------- 4|------ 4------------ 4-------- 0|
D|---- 0-------------- 0----------|-- 0------------------ 0--------|
A|--------------------------------|------------------------------ 3|
E| 3---------------------------- 0|--------------------------------|
Classical Guitar Tablature http://classicalguitartablature.blogspot.com/
E|------ 3-- 0---------- 0-- 5-- 5|--------------------------------|
B|------ 1-- 1-- 3------ 3------ 5|------------ 5-------------- 5--|
G|---- 0 0-- 0-- 0-------------- 5|------ 5---------------- 5------|
D|------------------ 0------------|---- 5-------------- 5----------|
A|---------------- 2--------------|-------------- 5----------------|
E|--------------------------------| 5------------------------------|
Classical Guitar Tablature http://classicalguitartablature.blogspot.com/
E| 7-------------- 7--------------| 5---------------------------- 8|
B| 8------ 8------ 8---- 8--------| 5-------- 8---- 5-------- 5-- 8|
G| 9---------- 9------------ 9----| 5------ 5------ 5---- 5--------|
D|---- 9-------------- 9----------|---- 5-------------- 5----------|
A|--------------------------------|--------------------------------|
E| 0-------------- 0--------------| 5-------------- 5------------ 8|
Classical Guitar Tablature http://classicalguitartablature.blogspot.com/
E|---------- 8------------------ 5|------------------------------ 3|
B|---------------------- 8--------| 5---------- 5---------------- 3|
G|------ 9------ 9----------------|------ 5------------ 5------ 2 0|
D|--10--------------10------10----|-- 5---------------- 5------ 0--|
A|--------------------------------| 5------------------------------|
E|-------------- 8----------------|-------------- 5-------- 2------|
Classical Guitar Tablature http://classicalguitartablature.blogspot.com/
E|------ 3-- 0---------- 0-- 3-- 3|------------------------------ 3|
B|------ 3-- 3-- 3------ 3-- 3-- 3|---------- 3------------------ 1|
G|-------------- 0-------------- 4|------ 4------------ 4-------- 0|
D|---- 0-------------- 0----------|-- 0------------------ 0--------|
A|--------------------------------|------------------------------ 3|
E| 3---------------------------- 0|--------------------------------|
Classical Guitar Tablature http://classicalguitartablature.blogspot.com/
E|------ 3-- 0---------- 0-- 5-- 5|--------------------------------|
B|------ 1-- 1-- 3------ 3------ 5|------------ 5-------------- 5--|
G|---- 0 0-- 0-- 0-------------- 5|------ 5---------------- 5------|
D|------------------ 0------------|---- 5-------------- 5----------|
A|---------------- 2--------------|-------------- 5----------------|
E|--------------------------------| 5------------------------------|
Classical Guitar Tablature http://classicalguitartablature.blogspot.com/
E| 7-------------- 7--------------| 5---------------------------- 8|
B| 8------ 8------ 8---- 8--------| 5-------- 8---- 5-------- 5-- 8|
G| 9---------- 9------------ 9----| 5------ 5------ 5---- 5--------|
D|---- 9-------------- 9----------|---- 5-------------- 5----------|
A|--------------------------------|--------------------------------|
E| 0-------------- 0--------------| 5-------------- 5------------ 8|
Classical Guitar Tablature http://classicalguitartablature.blogspot.com/
E|---------- 8------------------ 5|------------------------------ 5|
B|---------------------- 8--------| 5---------- 5------------------|
G|------ 9------ 9----------------|------ 5------------ 5------ 2--|
D|--10--------------10------10----|-- 5---------------- 5------ 0--|
A|--------------------------------| 5------------------------------|
E|-------------- 8----------------|-------------- 5-------- 2------|
Classical Guitar Tablature http://classicalguitartablature.blogspot.com/
E|--------------------------------| 3---------------------------- 7|
B| 3------ 3------ 7---- 5-- 7----| 3-------- 3-------------- 3--10|
G| 0------ 0------ 5-- 5---- 5----| 0---- 0---------- 2-- 2------ 9|
D|---- 4------ 4-- 5---- 5-- 5----|-- 0-------------- 0------------|
A|---------------- 5--------------|--------------------------------|
E| 0------------------------------| 3------------ 2-------------- 0|
Classical Guitar Tablature http://classicalguitartablature.blogspot.com/
E|------ 7------ 7----------------| 8------10-- 8-- 7------------ 5|
B|--10--10--10--10--10-- 8--------| 8------ 8-- 8-- 8---- 8--------|
G|-- 9-- 9-- 9-- 9------------ 9--| 9-------------- 7------ 7------|
D|-- 9------ 9--------------------|----10-------------- 9------ 9--|
A|--------------------------------|--------------------------------|
E|-------------- 0----------------| 8-------------- 7--------------|
Classical Guitar Tablature http://classicalguitartablature.blogspot.com/
E|----------------------12--10----|------------------------------ 7|
B| 8---------- 8------10--------10|------------------------------10|
G| 6------ 6----------12----------| 7------------------ 5-------- 9|
D|---- 7--------------------------|---- 7------ 7------ 7---- 7----|
A| 0--------------10--------------| 9---- 7-------- 5---- 6--------|
E|--------------------------------|------------------------------ 0|
Classical Guitar Tablature http://classicalguitartablature.blogspot.com/
E|------ 7------ 7----------------| 8------10-- 8-- 7------------ 5|
B|--10--10--10--10--10-- 8--------| 8------ 8-- 8-- 8---- 8--------|
G|-- 9-- 9-- 9-- 9------------ 9--| 9-------------- 7------ 7------|
D|-- 9------ 9--------------------|----10-------------- 9------ 9--|
A|--------------------------------|--------------------------------|
E|-------------- 0----------------| 8-------------- 7--------------|
Classical Guitar Tablature http://classicalguitartablature.blogspot.com/
E|----------------------12--10----|--------------------------------|
B| 8---------- 8------10--------10|-------------------------- 5----|
G| 6------ 6----------12----------| 7-------------------- 5------ 7|
D|---- 7--------------------------|---- 7------ 7---- 5------------|
A| 0--------------10--------------| 9---- 7-------- 5--------------|
E|--------------------------------|--------------------------------|
Classical Guitar Tablature http://classicalguitartablature.blogspot.com/
E|--------------------------------|10---------------------------- 3|
B|10-------------------------- 8--| 8---------- 8-- 5------------ 3|
G|-------- 7-------------- 7------|-------- 7------ 5---- 5------ 0|
D|-- 7-------- 7------ 7----------|---- 6------------ 5------ 5----|
A|--------------------------------|--------------------------------|
E| 8-------------- 7--------------| 6-------------- 5--------------|
Classical Guitar Tablature http://classicalguitartablature.blogspot.com/
E|------ 3-- 0---------- 0-- 3-- 3|------------------------------ 3|
B|------ 3-- 3-- 3------ 3-- 3-- 3|---------- 3------------------ 1|
G|-------------- 0-------------- 4|------ 4------------ 4-------- 0|
D|---- 0-------------- 0----------|-- 0------------------ 0--------|
A|--------------------------------|------------------------------ 3|
E| 3---------------------------- 0|--------------------------------|
Classical Guitar Tablature http://classicalguitartablature.blogspot.com/
E|------ 3-- 0---------- 0-- 5-- 5|--------------------------------|
B|------ 1-- 1-- 3------ 3------ 5|------------ 5-------------- 5--|
G|---- 0 0-- 0-- 0-------------- 5|------ 5---------------- 5------|
D|------------------ 0------------|---- 5-------------- 5----------|
A|---------------- 2--------------|-------------- 5----------------|
E|--------------------------------| 5------------------------------|
Classical Guitar Tablature http://classicalguitartablature.blogspot.com/
E| 7-------------- 7--------------| 5---------------------------- 8|
B| 8------ 8------ 8---- 8--------| 5-------- 8---- 5-------- 5-- 8|
G| 9---------- 9------------ 9----| 5------ 5------ 5---- 5--------|
D|---- 9-------------- 9----------|---- 5-------------- 5----------|
A|--------------------------------|--------------------------------|
E| 0-------------- 0--------------| 5-------------- 5------------ 8|
Classical Guitar Tablature http://classicalguitartablature.blogspot.com/
E|---------- 8------------------ 5|------------------------------ 5|
B|---------------------- 8--------| 5---------- 5------------------|
G|------ 9------ 9----------------|------ 5------------ 5------ 2--|
D|--10--------------10------10----|-- 5---------------- 5------ 0--|
A|--------------------------------| 5------------------------------|
E|-------------- 8----------------|-------------- 5-------- 2------|
Classical Guitar Tablature http://classicalguitartablature.blogspot.com/
E|--------------------------------| 3---------------------------- 5|
B| 3------ 3------ 7---- 5-- 7----| 3-------- 3-------------- 3-- 3|
G| 0------ 0------ 5-- 5---- 5----| 0---- 0---------- 2-- 2------ 0|
D|---- 4------ 4-- 5---- 5-- 5----|-- 0-------------- 0------------|
A|---------------- 5--------------|--------------------------------|
E| 0------------------------------| 3------------ 2-------------- 0|
Classical Guitar Tablature http://classicalguitartablature.blogspot.com/
E|--------------------------------| 3------------------------------|
B|------ 3------ 7---- 5---- 7----| 3------------------------------|
G|------ 0------ 5---- 5---- 5-- 2|--------------------------------|
D|-- 4------ 4-- 5---- 5---- 5----|--------------------------------|
A|---------------- 5--------------|--------------------------------|
E|------------------------------ 3|--------------------------------|
Classical Guitar Tablature http://classicalguitartablature.blogspot.com/

0 ความคิดเห็น:

แสดงความคิดเห็น