To celebrate the anniversary, I am giving you (finally...) : iPhone LickByNeck !!!!!!

Dan Yuan Ren Chang Jiu (Intermediate)

Popular Chinese hit fingerstyle chord melody guitar intermediate arrangement played in the key of G.

You need to install the Flash plugin - http://www.webestools.com/

Dan Yuan Ren Chang Jiu played in the key of G.
Classical Guitar Tablature http://classicalguitartablature.blogspot.com/
E|------ 3-- 2------ 0------------|--------------------------------|
B|------ 3-- 3------ 3------ 3----|---------------------- 3--------|
G|--------------------------------|------ 2------ 0------------ 0--|
D|---- 0---------------- 0--------|---- 0---- 0------ 0------------|
A|--------------------------------|--------------------------------|
E| 3------------------------------|--------------------------------|
Classical Guitar Tablature http://classicalguitartablature.blogspot.com/
E|-------- 3-- 2------ 0----------|------------------------------ 3|
B|-------- 3-- 3------ 3------ 3--|--------------------------------|
G|--------------------------------|--------------------------------|
D|---- 0------------------ 0------|--------------------------------|
A|--------------------------------|--------------------------------|
E| 3------------------------------|--------------------------------|
Classical Guitar Tablature http://classicalguitartablature.blogspot.com/
E|-------- 3 0--------------------|--------------------------------|
B| 3---- 3-- 3---- 3------ 5-- 8--| 8------------------------------|
G| 0-------------- 2------ 5-- 5--| 7---------- 5------ 4------ 4--|
D|---- 0-------------- 1-- 7------|---- 5------ 7------ 5------ 5--|
A|------------------------ 6------|-------- 6------ 5------ 4------|
E| 3------ 2------ 1--------------| 0------------------------------|
Classical Guitar Tablature http://classicalguitartablature.blogspot.com/
E| 3------ 3-- 0-------------- 5--| 5------------------------------|
B| 1------ 0-- 0-- 3------ 5------| 3-------------- 4--------------|
G| 0------ 0-- 0-- 0------ 5------| 2-------------- 5---------- 2--|
D|---- 2-------------- 2-- 5------|---- 4------ 4------ 4------ 1--|
A| 3------ 2------ 0--------------|---------------- 5------ 3------|
E|------------------------ 3------| 2------ 0----------------------|
Classical Guitar Tablature http://classicalguitartablature.blogspot.com/
E| 7-------------- 7------------ 5|---------- 3-- 0----------------|
B| 8------ 8------ 8------ 8---- 5|---------- 3-- 1----------------|
G| 9------ 9-- 9-- 9------ 9 9-- 5|---------- 2---- 2--------------|
D|---- 9-------------- 9----------|-------------------- 2------ 2--|
A|--------------------------------|--------------------------------|
E| 7------ 8------ 9------10------| 0---- 1-------- 2---- 3--------|
Classical Guitar Tablature http://classicalguitartablature.blogspot.com/
E| 8------ 8----------------------|------------------------------ 3|
B| 5------ 8------ 5-- 8--------10|--------------------------------|
G| 5------ 7------ 7-- 7-------- 9|---------------- 0-- 2----------|
D|---- 5------ 6-- 7-- 7------ 7--|---- 9------ 9-- 2-- 0------ 0--|
A|--------------------------------|--------------------------------|
E| 5------ 6------ 7---- 8--------| 9----10-------- 0---- 2--------|
Classical Guitar Tablature http://classicalguitartablature.blogspot.com/
E|-------- 3 0--------------------|--------------------------------|
B| 3---- 3-- 3---- 3------ 5-- 8--| 8------------------------------|
G| 0-------------- 2------ 5-- 5--| 7---------- 5------ 4------ 4--|
D|---- 0-------------- 1-- 7------|---- 5------ 7------ 5------ 5--|
A|------------------------ 6------|-------- 6------ 5------ 4------|
E| 3------ 2------ 1--------------| 0------------------------------|
Classical Guitar Tablature http://classicalguitartablature.blogspot.com/
E| 3------ 3-- 0-------------- 5--| 5------------------------------|
B| 1------ 0-- 0-- 3------ 5------| 3-------------- 4--------------|
G| 0------ 0-- 0-- 0------ 5------| 2-------------- 5---------- 2--|
D|---- 2-------------- 2-- 5------|---- 4------ 4------ 4------ 1--|
A| 3------ 2------ 0--------------|---------------- 5------ 3------|
E|------------------------ 3------| 2------ 0----------------------|
Classical Guitar Tablature http://classicalguitartablature.blogspot.com/
E| 7-------------- 7------------ 5|---------- 3-- 0----------------|
B| 8------ 8------ 8------ 8---- 5|---------- 3-- 1----------------|
G| 9------ 9-- 9-- 9------ 9 9-- 5|---------- 2---- 2--------------|
D|---- 9-------------- 9----------|-------------------- 2------ 2--|
A|--------------------------------|--------------------------------|
E| 7------ 8------ 9------10------| 0---- 1-------- 2---- 3--------|
Classical Guitar Tablature http://classicalguitartablature.blogspot.com/
E| 8------ 8----------------------|--------------------------------|
B| 5------ 8------ 5-- 8--------10|--------------------------------|
G| 5------ 7------ 7-- 7-------- 9|---------------- 0-- 2----------|
D|---- 5------ 6-- 7-- 7------ 7--|---- 9------ 9-- 2-- 0------ 0--|
A|--------------------------------|--------------------------------|
E| 5------ 6------ 7---- 8--------| 9----10-------- 0---- 2--------|
Classical Guitar Tablature http://classicalguitartablature.blogspot.com/
E| 5------------------------------|--------------------------------|
B| 5------ 3------ 7-- 5------ 7--| 8------------------------------|
G| 5------ 5------ 7-- 6------ 6--| 7---- 8---- 8-- 4---------- 4--|
D|---- 5------ 3-- 7-- 5------ 5--|---- 5------ 7------ 5------ 7--|
A|--------------------------------|---------------- 4------ 6------|
E| 3------ 4------ 5-- 6----------| 7------ 8----------------------|
Classical Guitar Tablature http://classicalguitartablature.blogspot.com/
E| 7------ 7-- 5-- 7--------------| 8------10-- 8-- 8------ 3------|
B| 8--10-- 7-- 7--10--10-- 8------| 8------ 8-- 8-- 5------ 6------|
G| 7-- 7-- 5-- 5-- 9------ 9------| 7------ 7-- 7-- 5------ 5------|
D|---- 9---------------------- 9--|---- 7-------------- 5------ 3--|
A| 7------ 6----------------------|--------------------------------|
E|----------------10------ 9------| 8------ 7------ 5------ 4------|
Classical Guitar Tablature http://classicalguitartablature.blogspot.com/
E| 5----------------10----12------|--------------------------------|
B| 2---------------- 8----15--15--|10------------------------------|
G| 2---------------- 8--------12--| 7-------------- 4--------------|
D|---- 2------ 2--------------14--|---- 7------ 7------ 4------ 4--|
A|---------------- 8--------------|--------------------------------|
E| 3------ 2--------------12------|10------ 8------ 7------ 5------|
Classical Guitar Tablature http://classicalguitartablature.blogspot.com/
E| 7-------------- 7--------------|--------10----------------------|
B|10--10--12--10-- 8--10-- 8------|13------13--13--12------ 8------|
G| 9-- 9-- 9-- 9-- 8------ 5------|12------12--12--10------ 7------|
D|--------10--10-------------- 7--|10--10------10------12-- 7-- 7--|
A|10------ 9------ 8------ 6------|--------------------------------|
E|--------------------------------|12------11------10------ 8------|
Classical Guitar Tablature http://classicalguitartablature.blogspot.com/
E|--------------------10--12------|--------------------------------|
B|10------------------ 9--15--15--|10------------------------------|
G| 9---------- 9------ 7--12--12--|11------------------ 9----------|
D|---- 9------ 8--------------14--|----10------10------10------10--|
A|------------------------13------|12------11------10------ 9------|
E| 9------ 8------ 7--------------|--------------------------------|
Classical Guitar Tablature http://classicalguitartablature.blogspot.com/
E|--------------------------------|10---------------------------- 3|
B|10---------------------- 8------|10------------------------------|
G| 7------------------ 5-- 9------| 8---------- 8-- 7---- 5---- 5--|
D|---- 7------ 7------ 7------10--|---- 8---------- 7---- 5---- 4--|
A| 8------ 7------ 6--------------|--------------------------------|
E|------------------------10------| 8-------------- 7---- 5---- 4--|
Classical Guitar Tablature http://classicalguitartablature.blogspot.com/
E|-------- 3 0--------------------|--------------------------------|
B| 3---- 3-- 3---- 3------ 5-- 8--| 8------------------------------|
G| 0-------------- 2------ 5-- 5--| 7---------- 5------ 4------ 4--|
D|---- 0-------------- 1-- 7------|---- 5------ 7------ 5------ 5--|
A|------------------------ 6------|-------- 6------ 5------ 4------|
E| 3------ 2------ 1--------------| 0------------------------------|
Classical Guitar Tablature http://classicalguitartablature.blogspot.com/
E| 3------ 3-- 0-------------- 5--| 5------------------------------|
B| 1------ 0-- 0-- 3------ 5------| 3-------------- 4--------------|
G| 0------ 0-- 0-- 0------ 5------| 2-------------- 5---------- 2--|
D|---- 2-------------- 2-- 5------|---- 4------ 4------ 4------ 1--|
A| 3------ 2------ 0--------------|---------------- 5------ 3------|
E|------------------------ 3------| 2------ 0----------------------|
Classical Guitar Tablature http://classicalguitartablature.blogspot.com/
E| 7-------------- 7------------ 5|---------- 3-- 0----------------|
B| 8------ 8------ 8------ 8---- 5|---------- 3-- 1----------------|
G| 9------ 9-- 9-- 9------ 9 9-- 5|---------- 2---- 2--------------|
D|---- 9-------------- 9----------|-------------------- 2------ 2--|
A|--------------------------------|--------------------------------|
E| 7------ 8------ 9------10------| 0---- 1-------- 2---- 3--------|
Classical Guitar Tablature http://classicalguitartablature.blogspot.com/
E| 8------ 8----------------------|--------------------------------|
B| 5------ 8------ 5-- 8--------10|--------------------------------|
G| 5------ 7------ 7-- 7-------- 9|---------------- 0-- 2----------|
D|---- 5------ 6-- 7-- 7------ 7--|---- 9------ 9-- 2-- 0------ 0--|
A|--------------------------------|--------------------------------|
E| 5------ 6------ 7---- 8--------| 9----10-------- 0---- 2--------|
Classical Guitar Tablature http://classicalguitartablature.blogspot.com/
E| 5------------------------------|--------------------------------|
B| 5------ 3------ 7-- 5------ 7--| 8---------------- 8------------|
G| 5------ 5------ 7-- 6------ 6--| 7---------------- 5------------|
D|---- 5------ 3-- 7-- 5------ 5--| 7---------------- 5------------|
A|--------------------------------|--------------------------------|
E| 3------ 4------ 5-- 6-------- 7|---------------- 5--------------|
Classical Guitar Tablature http://classicalguitartablature.blogspot.com/
E|------ 3------------------------|--------------------------------|
B|--------------------------------|--------------------------------|
G|---- 2--------------------------|--------------------------------|
D|--------------------------------|--------------------------------|
A|--------------------------------|--------------------------------|
E|---- 3--------------------------|--------------------------------|
Classical Guitar Tablature http://classicalguitartablature.blogspot.com/

0 ความคิดเห็น:

แสดงความคิดเห็น