To celebrate the anniversary, I am giving you (finally...) : iPhone LickByNeck !!!!!!

Desafinado

Bossa Nova classic fingerstyle solo guitar arrangement played in the key of F

You need to install the Flash plugin - http://www.webestools.com/

http://classicalguitartablature.blogspot.com/
Desafinado played in the key of F.
http://classicalguitartablature.blogspot.com/
E|-------------- 0---- 1---- 0----|--------------------------------|
B|------ 1-- 3-- 1---- 1---- 1----|------ 3------ 2-- 3------ 6----|
G|-------- 0 0-- 0---- 0---- 0----|-------------- 2---------- 4----|
D|---- 3--------------------------|-------------- 2---------- 3----|
A|-------------- 3----------------|-------------- 3----------------|
E| 1------------------------------| 1------------------------------|
http://classicalguitartablature.blogspot.com/
E|--------------------------------|--------------------------------|
B|------ 6---------- 2------ 2----|------ 2------------ 2----------|
G|------ 4---------- 4------ 4----|------ 4---------- 4------ 4----|
D|------ 3---------- 3------ 3----|------ 3---------- 3------ 3----|
A|--------------------------------|--------------------------------|
E| 3------------ 3-------------- 3|---------------- 3--------------|
http://classicalguitartablature.blogspot.com/
E|------------------ 3------------|--------------------------------|
B|------ 3-- 5-- 6---------- 6----|-- 5-------- 4------ 5----------|
G|---------- 3-- 3---------- 3----|---- 3-------------- 3----------|
D|------ 3------ 3---------- 5----|---- 5-------------- 5----------|
A|---------------- 5------------ 3|--------------------------------|
E| 3------------------------------|---------------- 3--------------|
http://classicalguitartablature.blogspot.com/
E| 8------ 8----------------------|--------------------------------|
B| 8------ 8-------- 4------ 4----|------ 4---------- 4------ 4----|
G| 8------ 8-------- 5------ 5----|------ 5---------- 5------ 5----|
D|------------------ 5------ 4----|------ 4---------- 4------ 4----|
A|------------------------------ 5|--------------------------------|
E| 5-------------- 5--------------|-------------- 5----------------|
http://classicalguitartablature.blogspot.com/
E|------ 8-- 6---- 5-- 3------ 6--|------ 5------------------------|
B|------ 6-- 6-------- 3------ 6--|------ 6-------- 8-- 6------ 8--|
G|------ 7-------- 3-- 3------ 6--|-------- 6------ 6-- 6------ 5--|
D|------ 5------------------------|---------------- 6-- 6------ 5--|
A|---------------- 5--------------|---------------- 6--------------|
E| 3------------------------------| 6------------------------------|
http://classicalguitartablature.blogspot.com/
E|--------------------------------|--------------------------------|
B|------ 8---------- 8------ 6----|-- 6------ 6------ 6------ 6----|
G|-------- 5---------- 5---- 5----|-- 5------ 5-------- 5---- 5----|
D|------ 5------------ 5---- 4----|-- 4------ 4------ 4------ 4----|
A|-------------- 7-------------- 5|--------------------------------|
E| 5------------------------------|-------------- 5----------------|
http://classicalguitartablature.blogspot.com/
E|------ 5-- 3-------------- 5----|-------- 3------------------ 1--|
B|-- 3-- 3-- 3-- 6---- 3---- 3----|-------- 3------ 6-- 3----------|
G|------ 4-- 4-- 4---- 4---- 4----|-------- 4------ 4-- 4------ 3--|
D|---- 3-------- 3---- 3----------|-------------------- 3----------|
A|---------------- 5--------------|---------------- 5--------------|
E| 3------------------------------| 3------------------------------|
http://classicalguitartablature.blogspot.com/
E|------ 1------------------------|--------------------------------|
B|------ 2---------- 2------ 2----|-------- 2---------- 2------ 2--|
G|------ 3---------- 3------ 3-- 3|-------- 3---------- 3------ 3--|
D|------------------ 3------ 3----|-------- 3---------- 3------ 3--|
A|-------------- 4----------------|---------------- 4--------------|
E| 2------------------------------| 2------------------------------|
http://classicalguitartablature.blogspot.com/
E|-------------- 0---- 1---- 0----|--------------------------------|
B|------ 1-- 3-- 1---- 1---- 1----|-------- 3------ 2-- 3------ 6--|
G|------ 2-- 2-- 0---- 0---- 0----|-------- 0---- 2---- 2------ 4--|
D|-- 3----------------------------|-------- 2------ 2-- 2------ 3--|
A|-------------- 3----------------|---------------- 3--------------|
E| 1---------------------------- 1|--------------------------------|
http://classicalguitartablature.blogspot.com/
E|--------------------------------|--------------------------------|
B|------ 6---------- 2------ 2----|--------------------------------|
G|-------- 4-------- 4------ 4----|------ 4---------- 4-------- 4--|
D|-------- 3-------- 3------ 3----|------ 3---------- 3-------- 3--|
A|--------------------------------|--------------------------------|
E| 3------------ 3-------------- 3|-------------- 3-------------- 3|
http://classicalguitartablature.blogspot.com/
E|------------------ 3------------|----------------------------10--|
B|------ 3-- 5-- 6---------- 6----|-- 5 5------ 4------ 5------ 8--|
G|------ 3------ 3---------- 3----|---- 3------ 3------ 3------ 8--|
D|-- 3---------- 3---------- 5----|---- 5------ 5------ 5----------|
A|-------------- 5-------------- 3|--------------------------------|
E|--------------------------------|---------------- 3--------------|
http://classicalguitartablature.blogspot.com/
E|--------10----------------------|--------------------------------|
B|-------- 8---------- 8------ 4--|---- 4------ 4------ 4---- 4----|
G|-------- 8------ 8-- 8------ 5--|---- 5------ 5------ 5---- 5----|
D| 7-------------- 7---------- 4--|---- 4------ 4------ 4---- 4-- 3|
A|--------------------------------| 5------------------------------|
E|--------------------------------|---------------- 5------------ 3|
http://classicalguitartablature.blogspot.com/
E|-------- 8 6-- 5-- 3------ 6----|---- 5--------------------------|
B|-------- 6-- 6 3-- 3------ 6----|---- 6------ 8------ 6------ 8--|
G|-------- 7---- 3---- 3---- 6----|---- 6------ 6------ 6------ 5--|
D|-------- 5----------------------|------------ 6------ 6------ 5--|
A|-------------- 5----------------|---------------- 8--------------|
E|------------------------------ 6|--------------------------------|
http://classicalguitartablature.blogspot.com/
E|--------------------------------|--------------------------------|
B|---- 8---- 8------ 8------ 8-- 6|------ 6---------- 8------ 8----|
G|---- 5---- 5------ 5-------- 5 7|------ 7------------ 7------ 7--|
D|---- 5---- 5------ 5------ 5-- 7|------ 7---------- 6-------- 6--|
A|-------------- 7----------------|-------------- 7----------------|
E| 5------------------------------| 7------------------------------|
http://classicalguitartablature.blogspot.com/
E|--------------------------------|--------------------------------|
B| 5---- 7-- 5-------- 7---- 5----|-------------------------- 5----|
G| 6------ 6 6-------- 6---- 6----|---- 7---- 6-------- 7---- 4----|
D| 6---- 6-- 6-------- 6---- 5----|---- 5---- 5-------- 5------ 4--|
A|--------------------------------|------------------------------ 2|
E| 5------------ 5-------------- 6|-------------- 6----------------|
http://classicalguitartablature.blogspot.com/
E|--------------------------------|--------------------------------|
B|---------- 5-------------- 5----|------ 5------------ 5------ 5--|
G|---- 4------ 4------ 4---- 7----|------ 7------------ 7------ 7--|
D|---- 4------ 4------ 4---- 6----|------ 6------------ 6------ 6--|
A|------------------------------ 7|--------------------------------|
E|---------------- 2--------------|---------------- 7--------------|
http://classicalguitartablature.blogspot.com/
E|--------------------------------|--------------------------------|
B| 5---- 7------ 5---- 7---- 5----|-------------------------- 5----|
G| 6------ 6---- 6---- 6------ 6--|-- 7------ 6-------- 7-------- 4|
D| 7------------------------ 5----|-- 5------ 5-------- 5----------|
A|---------- 7--------------------|--------------------------------|
E| 5---------------------------- 6|-------------- 6----------------|
http://classicalguitartablature.blogspot.com/
E|--------------------------------|--------------------------------|
B|-- 5-- 5------ 5----------------|------ 0------------ 5------ 5--|
G|---- 4---- 4-- 4------ 4--------|------ 1------------ 4------ 4--|
D|---- 4--------------------------|------ 2------------ 2---- 2----|
A| 2------------------------------|--------------------------------|
E|-------------- 2-------------- 0|---------------- 4------------ 5|
http://classicalguitartablature.blogspot.com/
E|-------------- 4-- 5------ 7----|-- 5----------------------------|
B|------ 5-- 7-- 5-- 5------ 5----|-- 5------ 2-------- 3---- 5----|
G|------ 6-- 6-- 6-- 6------ 6----|-- 6------ 2-------- 2---- 2----|
D|-- 7-------------------------- 4|---------- 2-------- 2---- 4----|
A|-------------- 7----------------|-------------- 4-------------- 2|
E|--------------------------------|--------------------------------|
http://classicalguitartablature.blogspot.com/
E|-- 2------ 2--------------------|------------------------------ 3|
B|-- 5-- 5-- 5-- 5------ 5--------|-------- 3---------- 5-------- 5|
G|---- 2 2-- 2-- 2------ 2--------|-------- 1---------- 4----------|
D|------ 4------ 4------ 4--------|-------- 0---------- 2----------|
A|--------------------------------|--------------------------------|
E|-------------- 2----------------| 0-------------- 4--------------|
http://classicalguitartablature.blogspot.com/
E|------ 5-- 3------ 5------ 3----|-------------------------- 3----|
B|------ 5-- 5------ 5------ 5----|---- 6------ 5------ 6---- 3----|
G| 4---- 4-- 4------ 4------ 3----|---- 3------ 3------ 3---- 5----|
D|--------------------------------|--------------------------------|
A| 3------------------------------| 4-------------- 4------------ 5|
E|-------------- 3----------------|--------------------------------|
http://classicalguitartablature.blogspot.com/
E|------ 3------ 3------ 3--------|------------------ 3-- 5------ 6|
B|-- 3-- 3-- 3-- 3------ 3--------|------ 3---------- 3---------- 3|
G|------ 5-- 5-- 5------ 5--------|------ 4---------- 4-- 4------ 3|
D|-- 3------ 3--------------------|------ 3------------------------|
A|--------------------------------|-------------- 5----------------|
E|-------------- 5-------------- 3|------------------------------ 3|
http://classicalguitartablature.blogspot.com/
E|------ 5------ 6---- 5---- 8----|---- 6---- 5-------- 6------ 3--|
B|------ 3------ 3---- 3---- 5----|---------- 5---------------- 3--|
G|------ 3------ 3---- 3------ 5--|---------- 5-------- 5------ 3--|
D|--------------------------------|--------------------------------|
A|-------------- 5----------------|---------------- 5--------------|
E|------------------------------ 5|--------------------------------|
http://classicalguitartablature.blogspot.com/
E|--------------------------------|--------------------------------|
B|-------- 3---------- 3---- 3----|---- 4---- 4-------- 4---- 4----|
G|-------- 3---------- 3---- 3----|---- 3---- 3-------- 3---- 3----|
D|-------- 3---------- 3---- 3----|---- 2---- 2-------- 2---- 2----|
A|---------------- 5--------------|--------------------------------|
E| 3------------------------------| 2------------ 2-------------- 1|
http://classicalguitartablature.blogspot.com/
E|-------------- 0-- 1------ 0----|--------------------------------|
B|------ 1-- 3-- 1-- 1------ 1----|------ 3------ 2-- 3------ 3-- 6|
G|------ 2-- 2-- 0-- 0-------- 0--|------ 0------ 2-- 2------ 2-- 4|
D|---- 3-------- 2----------------|-------------- 2-- 2------ 2-- 3|
A|-------------- 3----------------|-------------- 3----------------|
E|--------------------------------| 1------------------------------|
http://classicalguitartablature.blogspot.com/
E|--------------------------------|--------------------------------|
B|------ 6---------- 2------ 2----|------ 2------------ 2------ 2--|
G|------ 4------------ 4---- 4----|-------- 4---------- 4---- 4----|
D|------ 3---------- 3------ 3----|------ 3---------- 3-------- 3--|
A|--------------------------------|--------------------------------|
E| 3------------ 3----------------| 3------------ 3-------------- 3|
http://classicalguitartablature.blogspot.com/
E|------------------ 3------------|--------------------------10----|
B|------ 3-- 5-- 6---------- 6----|-- 5------ 4------ 5------ 8----|
G|-------------- 3---------- 3----|-- 3------ 5------ 5------ 8----|
D|-- 3---------- 3---------- 5----|-- 5-------------------------- 7|
A|-------------- 5-------------- 3|--------------------------------|
E|--------------------------------|-------------- 6----------------|
http://classicalguitartablature.blogspot.com/
E|-- 9------ 8------ 7------------|--10-------------------------- 8|
B|---------- 8------ 8------11----|--11--------11--------10------ 6|
G|---------- 8------ 8------11----|--11--------11---------------- 7|
D|-------------- 7----------10----|------------10---------------- 5|
A|--------------------------------|----------11----11--------------|
E|------------------------------10|--------------------------------|
http://classicalguitartablature.blogspot.com/
E|------ 6---- 5-------- 3-- 6----|-- 5---------------------- 5----|
B|------------ 3------ 3---- 6----|-- 6------ 8------ 6------ 5----|
G|------ 7---- 3------ 3---- 6----|-- 6------ 6------ 6------ 5----|
D|--------------------------------|---------- 6------ 6------------|
A|-------------- 5----------------|-------------- 6----------------|
E|-------------------------------2| 6---------------------------- 5|
http://classicalguitartablature.blogspot.com/
E|------ 5------------------------|--------------------------------|
B|------ 5---------- 5------ 8----|------ 8---------- 3-- 5------ 6|
G|------ 5---------- 5------ 5----|------ 5-------------- 5------ 4|
D|-------------------- 5---- 7----|------ 7---------- 4-- 4------ 3|
A|-------------- 6-------------- 5|--------------------------------|
E|--------------------------------|-------------- 4----------------|
http://classicalguitartablature.blogspot.com/
E|--------------------------------|--------------------------------|
B|------ 6-- 6------ 6------ 6----|-- 6------ 6-- 3-- 3-- 5------ 6|
G|------ 4-- 4------ 4------ 4----|-- 4------ 4------ 4-- 4------ 6|
D|------ 3-- 3------ 3------ 3----|-- 3------ 3------ 3-- 3------ 6|
A|-------------- 5----------------|-------------- 5----------------|
E| 3---------------------------- 3|------------------------------ 6|
http://classicalguitartablature.blogspot.com/
E|---------------- 8------ 6------|--------------------------------|
B|------ 6-------- 6---- 6--------|---- 6------ 6---------- 3 5----|
G|-------- 6------ 6------ 6------|---- 6------ 6------------------|
D|------ 6---- 6------------------|---- 6------ 6------------------|
A|---------------- 8--------------| 6-------------- 6--------------|
E|--------------------------------|--------------------------------|
http://classicalguitartablature.blogspot.com/
E|--------------------------------|------------ 8------------------|
B| 6------ 6-- 6------ 6------ 6--|---- 6------10------10------ 8--|
G| 4------ 4-- 4------ 4------ 3--|---- 3------ 9------ 9------ 9--|
D| 3------ 3-- 3------ 3------ 5--|---- 5-------------- 8------ 7--|
A|-------------- 5-------------- 3|--------------------------------|
E| 3------------------------------|---------------- 8--------------|
http://classicalguitartablature.blogspot.com/
E|--------------------------------|--------------------------------|
B|-------- 8---------- 8------ 6--|---- 6------ 6-------- 8-- 6----|
G|-------- 9---------- 9------ 7--|---- 7------ 7------------------|
D|-------- 7---------- 7------ 7--|---- 7------ 7------------------|
A| 8-------------- 8--------------|--------------------------------|
E|--------------------------------| 8-------------- 8--------------|
http://classicalguitartablature.blogspot.com/
E|12------10---- 8----------------|------------------ 8------------|
B|10------10 9--10----10------ 8--|------ 8----------10----10------|
G|10------10---- 9---- 9------ 7--|------ 7---------- 9-- 9--------|
D| 9-------------------------- 8--|------ 8-------------- 8--------|
A|---------------- 9--------------|--------------------------------|
E|--------------------------------| 8-------------- 8--------------|
http://classicalguitartablature.blogspot.com/
E| 3---------------- 3---------- 1|--------------------------------|
B| 1------------ 1------ 1------ 1|--------------------------------|
G| 0-------- 0-------------- 0-- 0|--------------------------------|
D|--------------------------------|--------------------------------|
A|--------------------------------|--------------------------------|
E|-------- 1-------------------- 1|--------------------------------|
http://classicalguitartablature.blogspot.com/

0 ความคิดเห็น:

แสดงความคิดเห็น