To celebrate the anniversary, I am giving you (finally...) : iPhone LickByNeck !!!!!!

Desperado

Classic Eagles' ballad fingerstyle chord melody guitar arrangement played in the key of Bb.

http://classicalguitartablature.blogspot.com/
Desperado played in the key of Bb.
Classical Guitar Tablature http://classicalguitartablature.blogspot.com/
E|--------------------------------|--------------------------------|
B|---- 6------ 8------ 6----------|--------------------------------|
G| 7------ 7-- 7---------- 7------| 3-- 3------ 5------ 3-- 3-- 5--|
D| 8---------- 6-------------- 8--| 5------ 5-- 4------ 4-------- 3|
A|------------------------------ 6|------------ 6------------------|
E| 6---------- 6------------------|------------------------------ 6|
Classical Guitar Tablature http://classicalguitartablature.blogspot.com/
E|--------------------------------|--------------------------------|
B| 3-- 6-- 6-- 6---- 3------------| 3-- 1-- 1-- 1-------------- 1--|
G| 3------ 5-- 5------ 3 5 3------| 3------ 3-- 3-------- 3--------|
D|-------- 3-- 3------ 3 3 3------| 1---------- 1---- 1------------|
A|--------------------------------|--------------------------------|
E|-------- 5------ 3------------ 2|-------------- 1----------------|
Classical Guitar Tablature http://classicalguitartablature.blogspot.com/
E|--------------------------------|--------------------------------|
B|---------------- 3--------------|-------------------- 3----------|
G|---------------- 3------ 5------| 5-- 3-------------- 3-- 5-- 3--|
D|---------------- 1------ 3------| 3-- 3-- 3---------- 3-- 3-- 3 5|
A|--------------------------------|------------ 3 4 5------------ 6|
E|---------------- 3------ 5---- 6|--------------------------------|
Classical Guitar Tablature http://classicalguitartablature.blogspot.com/
E|--------------------------------|--------------------------------|
B|--------------------------------| 3-- 6-- 6-- 6---- 3------------|
G|-- 3-------- 5------ 3-- 3-- 5--| 3------ 5-- 5------ 3 5--------|
D|-------- 5-- 4---- 4---- 4-- 4 3|-------- 3---------- 3 3---- 3--|
A|---------------- 6--------------|--------------------------------|
E|------------------------------ 6|-------- 5------ 3------ 1------|
Classical Guitar Tablature http://classicalguitartablature.blogspot.com/
E|--------------------------------|--------------------------------|
B|-------- 1-- 1------------------| 3-- 6------------ 6---- 3------|
G| 7-- 5-- 3-- 3-------- 5-- 3----| 3---------- 5---- 3---- 1-- 3--|
D| 5-- 3-- 1-- 1-- 1---- 3-- 5-- 3|---------- 3-------- 3-- 1-- 6--|
A| 7-- 5-- 3----------------------|---------------------------- 5--|
E|------------ 2-- 1-- 3-- 4-- 5 6|------ 5-------- 4------ 1 6----|
Classical Guitar Tablature http://classicalguitartablature.blogspot.com/
E|--------------------------------|---------- 3--------------------|
B|-------------------------- 1----| 3-- 6 3-- 3------ 6-- 3--------|
G|---- 3------ 5------ 3 3---- 3--| 3---- 3-- 3------ 3-- 3 5 3----|
D| 5-- 3-- 5-- 4---- 1-- 1---- 1 3|------ 3---------- 5---- 3---- 1|
A| 6-- 5-- 3----------------------|-------------- 6------ 5------ 3|
E|------------ 6-- 4-- 2-- 1-- 2 3|------ 1------------------------|
Classical Guitar Tablature http://classicalguitartablature.blogspot.com/
E|--------------------------------|-------- 6 6-- 6 5 5 5----------|
B| 1-- 3--------------------------|11--11-- 8 8-- 8 6 6 6 8-- 6----|
G| 3-- 3-- 5-- 3---------- 3-- 3--|10-- 8-- 7 7-- 7-- 5 5 7-- 5----|
D|---- 1-- 3-- 3------ 3-- 4-- 1--| 8--10---------------- 5-- 3----|
A|------------------------------10|---- 9 8---- 7 5----------------|
E|---- 3-- 5------ 6------ 4-- 2--|-------------------- 8 6---- 5 3|
Classical Guitar Tablature http://classicalguitartablature.blogspot.com/
E| 3------------------------------|--------------------------------|
B| 4-- 8-- 8-- 6-- 8 6---- 3------|-------- 3----------------------|
G| 3-- 7 7 7-- 3-- 7 5---- 3-- 3--| 3-- 3---- 3---- 5 3-------- 3--|
D|---- 8 8 8-- 5-- 8 3---- 4-- 1--| 3-- 1-------- 5---- 3-- 5-- 1--|
A|---- 6-- 5 3--------------------|-------------- 6---- 5 3--------|
E|---------------- 6-- 5-- 4-- 2 3|---- 2 1---- 0------------ 1-- 6|
Classical Guitar Tablature http://classicalguitartablature.blogspot.com/
E|--------------------------------|-------- 6-- 6 6 5 5 5----------|
B|--------------------------------|11--11-- 8-- 8 8 6 6 6 8-- 6----|
G| 3---------------- 5---- 3-- 3--|10-- 8-- 7-- 7 7 5 5 5-- 7 5----|
D| 3-- 5 3---- 3---- 5 5-- 4-- 1--| 8--10------------------ 5 3----|
A|--------------------------------|10-- 9 8---- 7 5----------------|
E|-------- 6------ 5------ 4-- 2--|-------------------- 8-- 6-- 5 3|
Classical Guitar Tablature http://classicalguitartablature.blogspot.com/
E| 3------------------------------|--------------------------------|
B| 4-- 8-- 8-- 6-- 8 6---- 3------| 1------ 1----------------------|
G| 3-- 7 7 7-- 3-- 7 5---- 3-- 3--| 3------ 0-- 2-- 3------ 5------|
D|---- 8 8 8-- 5-- 8 3---- 4-- 1--| 2------ 2-- 1-- 2------ 8------|
A|---- 6-- 5-- 3------------------|---- 0 1---- 2-- 3-- 5 6 7-- 6--|
E|---------------- 6-- 5-- 4-- 2--| 3------------------------------|
Classical Guitar Tablature http://classicalguitartablature.blogspot.com/
E|--------------------------------|--------------------------------|
B|---------------- 3--------------|-------------------- 3----------|
G| 8---------- 3-- 5------ 5------| 5-- 3-------------- 3-- 5-- 3--|
D| 8-- 8------ 1 3---- 3-- 3-- 3--| 3-- 3-- 3---------- 3-- 3-- 3 5|
A| 8------------------------------|------------ 3 4 5------------ 6|
E|-------- 3---- 4-------- 5---- 6|--------------------------------|
Classical Guitar Tablature http://classicalguitartablature.blogspot.com/
E|--------------------------------|--------------------------------|
B|--------------------------------| 3-- 6-- 6-- 6---- 3------------|
G|-- 3-------- 5------ 3-- 3-- 5--| 3------ 5-- 5------ 3 5--------|
D|-------- 5-- 4---- 4---- 4-- 4 3|-------- 3---------- 3 3---- 3--|
A|---------------- 6--------------|--------------------------------|
E|------------------------------ 6|-------- 5------ 3------ 1------|
Classical Guitar Tablature http://classicalguitartablature.blogspot.com/
E|--------------------------------|--------------------------------|
B|-------- 1-- 1------------------| 3-- 6------------ 6---- 3------|
G| 7-- 5-- 3-- 3-------- 5-- 3----| 3---------- 5---- 3---- 1-- 3--|
D| 5-- 3-- 1-- 1-- 1---- 3-- 5-- 3|---------- 3-------- 3-- 1-- 6--|
A| 7-- 5-- 3----------------------|---------------------------- 5--|
E|------------ 2-- 1-- 3-- 4-- 5 6|------ 5-------- 4------ 1 6----|
Classical Guitar Tablature http://classicalguitartablature.blogspot.com/
E|--------------------------------|---------- 3--------------------|
B|-------------------------- 1----| 3-- 6 3-- 3------ 6-- 6--------|
G|---- 3------ 5------ 3 3---- 3--| 3---- 3-- 3------ 3-- 3--------|
D| 5-- 3-- 5-- 4---- 1-- 1---- 1 3|------ 3---------- 5-- 3-- 3-- 8|
A| 6-- 5-- 3----------------------|-------------- 6------ 5--------|
E|------------ 6-- 4-- 2-- 1-- 2 3|------ 1---------------------- 8|
Classical Guitar Tablature http://classicalguitartablature.blogspot.com/
E|---- 6------ 8------ 6----------|---- 1---- 3--------------------|
B| 8-- 9-- 8-- 6------ 6------ 1--| 3-- 4-- 3 6------ 6---- 3------|
G| 8-- 8-- 8-- 5------ 5-- 3-- 3--| 3-- 3-- 3-- 5---- 7---- 5-- 3--|
D|-------- 8-------------- 3-- 1--| 3------ 1-------- 5-- 5---- 3--|
A|--------------------------------|---------------------- 3---- 5--|
E|---- 7-- 6------ 5-- 4-- 3-- 2--| 1-- 2-- 3-- 4-- 5-- 6----------|
Classical Guitar Tablature http://classicalguitartablature.blogspot.com/
E|--------------------------------|--------------------------------|
B|---- 3-- 3----------------------|---- 6------ 8------ 6----------|
G| 5-- 3-- 3-------------- 3------| 7------ 7-- 7---------- 7------|
D| 5-- 3-- 1---------------- 5 3--| 8---------- 6-------------- 8--|
A| 6-- 5-- 3----------------------|------------------------------ 6|
E|------------------------ 1 3 5 6|------------ 6------------------|
Classical Guitar Tablature http://classicalguitartablature.blogspot.com/
E|--------------------------------|--------------------------------|
B|--------------------------------|--------------------------------|
G| 3-- 3------ 5------ 3-------- 3|------------ 3------------------|
D| 5------ 5-- 4---------- 4------|---------- 3--------------------|
A|------------ 6------------------|--------------------------------|
E|--------------------------------|---------- 6--------------------|
Classical Guitar Tablature http://classicalguitartablature.blogspot.com/

0 ความคิดเห็น:

แสดงความคิดเห็น