To celebrate the anniversary, I am giving you (finally...) : iPhone LickByNeck !!!!!!

Donna Lee

Charlie Parker's classic fingerstyle chord melody guitar arrangment played in the key of D.
http://classicalguitartablature.blogspot.com/

http://classicalguitartablature.blogspot.com/
Donna Lee played in the key of D.
http://classicalguitartablature.blogspot.com/
E|---------------- 910------------|--------------------------------|
B|---- 7---------- 9------12--11--|10 8 8-- 7------ 4------------ 1|
G|---- 6----------10------ 9-- 9--| 8-- 8-- 9-- 9-- 4------ 2-- 4 1|
D|---- 7------------------11--11--|---- 7------ 7------ 4 4---- 4--|
A| 5------ 5-------------- 9------|---------------- 6--------------|
E|---------------- 9--------------| 7------ 9-------------- 2---- 0|
http://classicalguitartablature.blogspot.com/
E|--------------------------------|--------------------------------|
B| 3 1-- 0-------------------- 7--|--------------------------------|
G|---- 2------ 2------ 4 7---- 7--| 6-- 4---------------- 3---- 1--|
D|---------------- 6---- 9--------| 6-- 6------ 6------ 6-- 1-- 1--|
A|--------------------------------|------ 5------ 4----------------|
E|------ 2-------- 4------ 7------| 0---------------------- 1------|
http://classicalguitartablature.blogspot.com/
E|---------------------------- 5--| 3---------- 2-- 1--------------|
B|-------------------- 3-- 7------| 3---------- 2------ 2----------|
G| 2---------- 0-- 4------ 7------| 3-- 3-- 4-- 4-------- 2---- 0--|
D|---- 1-- 2------ 2------ 5------|---- 5-- 4----------------------|
A|--------------------------------|--------------------------------|
E| 0------ 2------ 3------ 6------| 5------ 3------ 1------ 0------|
http://classicalguitartablature.blogspot.com/
E|--------------------------------|------------ 7-- 6--------------|
B|-------- 2-- 5 3----------------|---- 5-- 8------ 7-- 7------ 7--|
G|---- 2-- 2---- 2------ 2---- 4 5|-------- 6------ 5-- 5------ 5--|
D| 4------ 2------ 4-- 4 4---- 4--| 5------------------------------|
A| 5------ 4------ 2--------------|-------- 6------ 5--------------|
E|------------------------ 2---- 5|------------------------ 4------|
http://classicalguitartablature.blogspot.com/
E| 5-- 5------------------------ 5|------ 3------ 8---- 6 5---- 3--|
B| 3-- 3------------ 8-- 7---- 5 3|---- 3-------- 6---- 6-- 3-- 3 7|
G| 4------------------ 7 4---- 4 3|---- 3---------- 7------ 3-- 3 6|
D|-------------------- 5 4--------|---------------- 5------------ 7|
A|---------------------- 5--------|-------- 5-------------- 3------|
E| 3------ 5---- 7----------------| 3------------------------------|
http://classicalguitartablature.blogspot.com/
E|--------------------------------|------------ 7 810 8-- 7---- 5--|
B|---- 7 8---- 910---- 8 7--------|---- 710------ 9------ 7---- 7 9|
G|---- 6 7---- 7 9---- 9 9---- 9 8|------ 8------ 8------ 5---- 5--|
D|---- 7 9---- 9 8------ 8---- 8 7|--------------------------------|
A| 5-- 5-- 7-- 8-- 9--------------|------ 9-------- 8---- 6--------|
E|------------------------ 8---- 7|--------------------------------|
http://classicalguitartablature.blogspot.com/
E|--------------------------------|--------------------------------|
B|---- 7-- 6-- 4-- 5-- 3---- 0----|------------------------------10|
G| 7-- 7-- 4-- 4-- 2-- 2-- 1---- 6| 5 4-- 3---------------------- 7|
D| 9-- 9-- 6-- 6-- 2--------------|------ 2------------------------|
A| 7------ 5------ 4---- 2--------|------------------------ 2------|
E|------------------------------ 0|------ 2-------- 4--------------|
http://classicalguitartablature.blogspot.com/
E|--------------------------------|------------ 5-- 6 6-- 5---- 3--|
B|---- 8-------- 7----------------|---- 5 8-------- 6---- 5---- 5--|
G|---- 7---- 7-------- 9-- 7------| 6------ 6------ 6---- 3---- 3--|
D| 9---- 9-------------------- 9--| 5------------------------------|
A| 7------------------------------|-------- 7------ 6------ 4------|
E|------10------ 9-------- 7------| 5------------------------------|
http://classicalguitartablature.blogspot.com/
E|---------------- 910------------|--------------------------------|
B| 7-- 7---------- 9------12--11--|10 8 8-- 7------ 4------------ 1|
G| 6-- 6----------10------ 9-- 9--| 8-- 8-- 9-- 9-- 4------ 2-- 4 1|
D| 7-- 7------------------11--11--|---- 7------ 7------ 4 4---- 4--|
A| 5------ 5-------------- 9------|---------------- 6--------------|
E|---------------- 9--------------| 7------ 9-------------- 2---- 0|
http://classicalguitartablature.blogspot.com/
E|--------------------------------|--------------------------------|
B| 3 1-- 0-------------------- 7--|---------------------- 2---- 0--|
G|---- 2------ 2------ 4 7---- 7--| 6-- 4------------------ 1-- 1--|
D|---------------- 6---- 9--------| 6-- 6------ 6------ 6----------|
A|--------------------------------|------ 5------ 4-------- 2------|
E|------ 2-------- 4------ 7------| 0------------------------------|
http://classicalguitartablature.blogspot.com/
E|--------------------------------|--------------------------------|
B|-------- 2-- 3-- 5------ 2------| 810---- 7-- 5------------------|
G| 3 4---- 4-- 4-- 7-- 7-- 4-- 4--| 9------ 6-- 6-- 7 9 7-- 6------|
D| 2------ 2------ 6------ 2------| 8------ 5-- 5-- 8---------- 8--|
A|------------------------ 4------| 9------ 7----------------------|
E| 2------ 4------ 6--------------|---------------- 8------ 6------|
http://classicalguitartablature.blogspot.com/
E|--------------------------------|--------------------------------|
B|------------------------------ 3|---- 3---------------------- 6 7|
G| 4-- 4------ 4-------------- 4--| 3-- 3-------- 4------------ 6 7|
D| 4-- 4------ 4------ 4------ 3--| 2-- 2-------- 4------------ 5--|
A|--------------------------------|--------------------------------|
E| 7------ 5------ 4------ 3------| 2---------- 2-- 4---- 6------ 7|
http://classicalguitartablature.blogspot.com/
E|-------------- 4---- 3-- 4-- 5--|--------------------------------|
B|---- 6 7---- 8 3---- 3-- 5------|11--10--11------ 9-- 8 7------ 3|
G|---- 7 7---- 7 4---- 4 4--------| 9-- 9--11--14-- 9-- 9 9-- 9-- 2|
D|------ 7---- 7-------- 3--------|11------11------ 9-- 9 8-- 8----|
A|---------------------- 4--------| 9---------------------------- 2|
E|-------- 5---- 4----------------|--------12------ 9------ 8------|
http://classicalguitartablature.blogspot.com/
E|--------------------------------|-------------------- 9-- 7-- 6--|
B| 5 3-- 2-- 3-- 5---- 3 2--------|------------ 3-- 6------ 6-- 6--|
G|------ 2-- 2-- 4---- 4 3---- 4--|---- 1-- 4------ 7------ 7-- 7--|
D|------ 2-- 4---- 3---- 2---- 2 3|-------- 3------ 6------ 6------|
A|--------------------------------|--------------------------------|
E|------ 5-------- 4------ 3---- 1|-------- 4------ 7--------------|
http://classicalguitartablature.blogspot.com/
E|--------------------------------|------------ 2------------------|
B|10-- 8-- 7---- 4---- 1-- 0------|---- 0-- 3-- 3-- 5-- 3-- 2------|
G| 9-- 9-- 9-- 9-- 2-- 2-- 2-- 2 0|-------- 2-- 2-- 4-- 4-- 2-- 2--|
D| 8------ 8-- 8-- 4-- 1-- 1-- 1--| 0------ 2------ 5------ 2-- 2--|
A| 9-------------- 2-- 2----------|---------------------------- 4--|
E|-------- 8-------------- 1------| 0------ 2------ 3------ 5------|
http://classicalguitartablature.blogspot.com/
E|--------------------------------|--------------------------------|
B| 3-------------- 3--------------|--------------------------------|
G| 4-------------- 4--------------|--------------------------------|
D| 4-------------- 4--------------|--------------------------------|
A| 5-------------- 5--------------|--------------------------------|
E|--------------------------------|--------------------------------|
http://classicalguitartablature.blogspot.com/

0 ความคิดเห็น:

แสดงความคิดเห็น