To celebrate the anniversary, I am giving you (finally...) : iPhone LickByNeck !!!!!!

Emotion

Classic Bee Gees' hit fingerstyle chord melody guitar arrangement played in the key of C.

Emotion played in the key of C.
http://classicalguitartablature.blogspot.com/
E|--------------------------------|--------------------------------|
B| 1-- 0-------------- 0------ 1--|---- 0-------------- 0-------- 1|
G| 0-- 0------ 2------ 0------ 0--|---- 0------ 2------ 0-------- 2|
D| 2-- 2------ 2------ 2------ 2--|---- 2------ 2------ 2-------- 3|
A| 3---------- 3-------------- 3--|------------ 3------------------|
E|--------------------------------|---------------------------- 0--|
http://classicalguitartablature.blogspot.com/
E|------ 3-------------------- 3--|------------ 3-------------- 3--|
B|------ 1------------ 1------ 1--|---- 1------ 1------ 1------ 1--|
G|------ 2------------ 2------ 2--|---- 2------ 2------ 2----------|
D|-------------------- 3----------|---- 3-------------- 3----------|
A|--------------------------------|--------------------------------|
E| 3------------ 3----------------| 3-------------- 3--------------|
http://classicalguitartablature.blogspot.com/
E|--------------------------------|--------------------------------|
B| 1-- 0-------------- 0------ 1--|---- 0------------ 0------------|
G| 0-- 0------ 2------ 0------ 0--|---- 0------ 2---- 0---------- 2|
D| 2-- 2------ 2------ 2------ 2--|---- 2------ 2---- 2---------- 3|
A| 3---------- 3-------------- 3--|------------ 3------------------|
E|--------------------------------|-------------------------- 0-- 3|
http://classicalguitartablature.blogspot.com/
E|------ 3-------------------- 3--|------------ 3------------------|
B|------ 1------------ 1------ 1--|---- 1------ 1------------------|
G|------ 2------------ 2------ 2--|---- 2------ 2---------- 0------|
D|-------------------- 3----------|---- 3------------------ 3------|
A|--------------------------------|------------------------ 2------|
E|-------------- 3----------------| 3-------------- 3--------------|
http://classicalguitartablature.blogspot.com/
E|--------------------------------|---------------------- 5------ 3|
B| 5-- 5-- 6-- 5------------------| 5-- 5-- 6 5------------------ 5|
G| 5-- 5-- 5-- 7-------- 7--------| 5-- 5------ 5------------------|
D| 5-- 5------ 5---- 5------ 5----| 5-- 5-- 5-- 3---- 3------ 3----|
A|--------------------------------|--------------------------------|
E| 8------------ 7----------------| 5------------ 4----------------|
http://classicalguitartablature.blogspot.com/
E|--------------------------------|--------------------------------|
B|------------ 0-------------- 0--| 8-------------- 5--------------|
G| 4---- 4---- 0-------- 0--------| 6---------- 6-- 3------ 3-- 0--|
D|-- 2-------- 0---- 0------------|---- 8------ 5------ 5-- 2-- 2--|
A|--------------------------------|-------- 6------ 4------ 3-- 1--|
E| 3-------------- 1--------------| 0------------------------------|
http://classicalguitartablature.blogspot.com/
E|--------------------------------|--------------------------------|
B| 5-- 5-- 5-- 6-- 5--------------|-------------- 3----------------|
G| 5-- 5 5---- 5-- 5 5---- 5------| 2-------- 2-- 2---- 2----------|
D| 3-- 3 3---- 3-- 3 3-------- 3--| 3-- 3------ 3 2---- 2---- 2----|
A|--------------------------------|--------------------------------|
E| 5-------------- 4--------------| 3------------ 2-- 1---- 1------|
http://classicalguitartablature.blogspot.com/
E|--------------------------------|---------------------- 5-- 7----|
B|--------------------------------|---------- 1---- 8---------- 8--|
G| 0-------- 0---- 3---------- 4--|------ 2-------- 7---------- 7--|
D|------ 2------------ 3------ 3--|-- 3------------ 5--------------|
A|---------------- 5---- 4--------| 3------------------------------|
E| 0------------------------------|---------------- 7---------- 6--|
http://classicalguitartablature.blogspot.com/
E| 5-------- 5---- 5-- 3------ 0--| 3-- 0-------- 3---- 5---- 7----|
B| 6---------- 5-- 3-- 0------ 0--| 1-- 3-------- 5---- 5---- 5----|
G| 5---------- 4-- 2-- 0------ 0--| 0-- 4------ 4 3---- 2---- 6----|
D|---- 7--------------------------|------------ 5 5---- 2----------|
A|--------------------------------|------ 5------ 4---- 3---- 4----|
E| 5------ 3------ 2------ 1------| 0------------------------------|
http://classicalguitartablature.blogspot.com/
E|--------------------------------| 3------------ 3---- 5---- 7----|
B|10----------10--10---- 8---- 5--| 5------------ 0---- 3---- 7----|
G|10---------- 9--10---- 7---- 5--| 5-------- 5-- 0---- 4---- 6----|
D|--10-------- 8--10---- 5---- 3--|-- 5------ 4--------------------|
A|--------------------------------|-------------------------- 6----|
E|10------ 9------ 8---- 7---- 5--| 3------ 2---- 1-- 0------------|
http://classicalguitartablature.blogspot.com/
E| 5---------- 5---------------- 3|--------------------------------|
B| 6---------- 8--10---- 8-- 5-- 1|---- 5-------- 1---- 3 5-- 6----|
G| 5---------- 5-- 7-------- 5----| 0-- 5-------- 1---- 2 2-- 3----|
D|---- 7---------- 7-------- 7----|---- 3------ 3-- 1-- 3 2-- 5----|
A| 5------ 7------ 8-------- 9----|---------------- 1-- 2-- 3-- 4--|
E|--------------------------------| 3---- 5------------------------|
http://classicalguitartablature.blogspot.com/
E| 3---- 0-------------------- 0--|-------- 1-- 3---------- 5-- 7--|
B| 3---- 1-- 1 3-------------- 3--| 6-- 6-- 3-- 3--10-- 8-- 6-- 8--|
G| 4------ 2 2 0------ 0-- 2-- 2--| 5-- 5-- 1-- 1--10-- 9-- 7-- 7--|
D|---- 5---- 3 3------ 3-- 3------| 3-- 3---------- 9-- 7----------|
A| 5------ 3------ 2------ 0------|--------------------------------|
E|--------------------------------| 4-- 3-- 1-- 0--10-- 8-- 7-- 6--|
http://classicalguitartablature.blogspot.com/
E| 8------------------------ 3----|-- 0---------- 5-- 3-- 5-- 7-- 8|
B| 5------10--1010---- 8---- 0----|---- 3-------- 5-- 5-- 5-- 8----|
G| 5------ 7-- 7-- 9--10 9-- 0----|---- 2---- 2-- 5-- 5-- 5-- 7----|
D|---- 5-- 9-- 9-- 7-- 910--------|---------- 0--------------------|
A|--------------------------------|--------------------------------|
E| 5------ 7------ 8--10--11---- 0|------ 1------ 2---- 3-- 4-- 6--|
http://classicalguitartablature.blogspot.com/
E|------ 5-- 8-- 5----------------|-------------- 5---------- 8----|
B| 5------ 8-- 8 8-- 8------ 8----|----------10-- 7-- 8--10-- 8----|
G| 5------ 7-- 7 7-- 7-- 9-- 9----|-- 9------10-- 5-- 5--10-- 7----|
D|-- 5-------------- 5-- 7-- 8----|-- 8------10------ 8-- 8--------|
A|--------------------------------|-------------- 6-- 7--10--------|
E| 5------ 6------ 7---- 8------ 9|------10------------------------|
http://classicalguitartablature.blogspot.com/
E|------ 5-- 8--------------------|---------------------- 0-- 1----|
B|------ 5---- 6--10-- 8-- 5 8----|-------------- 1-- 3-- 1-- 1-- 8|
G|---- 7 5---- 6--10-- 9-- 7 7----|---- 7 5------ 2-- 2---- 1 0-- 6|
D|---- 7----------10-- 8-- 7 7----|---- 6 3------ 3-- 2---- 0 0-- 8|
A| 8------ 7-- 6------------------|--------------------------------|
E|----------------10-- 9-- 8------| 7-- 6-- 5-- 4-- 3-- 2-- 1-- 0--|
http://classicalguitartablature.blogspot.com/
E|--------------------------------|-------- 1-- 3---------- 5-- 7--|
B|------ 5 1-- 3-------------- 5--| 6-- 6-- 3-- 3--10-- 8-- 6-- 8--|
G|------ 5 1-- 2------ 2-- 1-- 5--| 5-- 5-- 1-- 1--10-- 9-- 7-- 7--|
D|-- 8-- 3 3-- 3------ 3-- 3-- 3--| 3-- 3---------- 9-- 7----------|
A| 6---- 5 4---- 3---- 2-- 1------|--------------------------------|
E|---------------------------- 5--| 4-- 3-- 1-- 0--10-- 8-- 7-- 6--|
http://classicalguitartablature.blogspot.com/
E| 8------------------------ 3----|-- 0---------- 5-- 3-- 5-- 7-- 8|
B| 5------10--1010---- 8---- 0----|---- 3-------- 5-- 5-- 5-- 8----|
G| 5------ 7-- 7-- 9--10 9-- 0----|---- 2---- 2-- 5-- 5-- 5-- 7----|
D|---- 5-- 9-- 9-- 7-- 910--------|---------- 0--------------------|
A|--------------------------------|--------------------------------|
E| 5------ 7------ 8--10--11---- 0|------ 1------ 2---- 3-- 4-- 6--|
http://classicalguitartablature.blogspot.com/
E|------ 5-- 8-- 5----------------|-------------- 5---------- 8----|
B| 5------ 8-- 8 8-- 8------ 8----|----------10-- 7-- 8--10-- 8----|
G| 5------ 7-- 7 7-- 7-- 9-- 9----|-- 9------10-- 5-- 5--10-- 7----|
D|-- 5-------------- 5-- 7-- 8----|-- 8------10------ 8-- 8--------|
A|--------------------------------|-------------- 6-- 7--10--------|
E| 5------ 6------ 7---- 8------ 9|------10------------------------|
http://classicalguitartablature.blogspot.com/
E|------ 5-- 8--------------------|---------------------- 0-- 1----|
B|------ 5---- 6--10-- 8-- 5 8----|-------------- 1-- 3-- 1-- 1-- 8|
G|---- 7 5---- 6--10-- 9-- 7 7----|---- 7 5------ 2-- 2---- 1 0-- 6|
D|---- 7----------10-- 8-- 7 7----|---- 6 3------ 3-- 2---- 0 0-- 8|
A| 8------ 7-- 6------------------|--------------------------------|
E|----------------10-- 9-- 8------| 7-- 6-- 5-- 4-- 3-- 2-- 1-- 0--|
http://classicalguitartablature.blogspot.com/
E|--------------------------------|--------------------------------|
B|------ 5 1-- 3------------------|--------------------------------|
G|------ 5 1-- 2------ 2-- 1-- 5--|------------ 5------ 7------ 7--|
D|-- 8-- 3 3-- 3------ 3-- 3-- 3--|---- 3------ 3------ 5------ 5--|
A| 6---- 5 4---- 3---- 2-- 1------|--------------------------------|
E|--------------------------------| 4------ 5------ 6------ 7------|
http://classicalguitartablature.blogspot.com/
E|--------------------------------|--------------------------------|
B| 1-- 0-------------- 0------ 1--|---- 0-------------- 0----------|
G| 0-- 0------ 2------ 0------ 0--|---- 0------ 2------ 0----------|
D| 2-- 2------ 2------ 2------ 2--|---- 2------ 2------ 2----------|
A| 3---------- 3-------------- 3--|------------ 3------------------|
E|--------------------------------|---------------------------- 0--|
http://classicalguitartablature.blogspot.com/
E|------ 3-------------------- 3--|---------- 3--------------------|
B| 1---- 1------------ 1------ 1--|---- 1---- 1--------------------|
G| 2---- 2------------ 2----------|---- 2---- 2---- 5-------- 7----|
D| 3------------------ 3----------|---- 3-------------- 3---- 5----|
A|--------------------------------|--------------------------------|
E| 3-------------- 3--------------| 3------------ 5-------- 7------|
http://classicalguitartablature.blogspot.com/
E|--------------------------------|--------------------------------|
B| 1-- 0------------------------ 1|-- 0---------------- 0-------- 1|
G| 0-- 0---- 2------ 4---------- 0|-- 2------ 2-------- 0---- 0-- 1|
D| 2-- 0---- 2------ 3------ 3-- 2|-- 2------ 2-------- 0------ 0 3|
A| 3---- 2------ 0----------------|--------------------------------|
E|---------------------- 4------ 3|------ 2------ 1------ 0--------|
http://classicalguitartablature.blogspot.com/
E|--------------------------------|--------------------------------|
B|---- 1---- 1-- 1-------- 3------|---- 5--------------------------|
G|---- 1---- 2---- 2------ 1------|-- 5----------------------------|
D|---- 3---- 3-------- 1-- 3-- 3--|-- 3----------------------------|
A| 5-- 4---- 3---- 2------ 1------|--------------------------------|
E|--------------------------------| 5------------------------------|
http://classicalguitartablature.blogspot.com/

0 ความคิดเห็น:

แสดงความคิดเห็น