-----[FreeSplanS.com]-----ศูนย์รวมแบบบ้าน และ ตกแต่ง หลากหลายสไตล์-----

The Entertainer

Classic Scott Joplin's tune fingerstyle chord melody guitar arrangement played in the key of E.


The Entertainer played in the key of E.
Classical Guitar Tablature http://classicalguitartablature.blogspot.com/
E|--------------------------------| 4---------- 4------------------|
B|---------------------- 5-- 7----| 5-- 5-- 7-- 5---------- 5-- 7--|
G|------------------------------ 4|------------ 4------ 4----------|
D|--------------------------------|--------------------------------|
A|--------------------------------|---------------- 5--------------|
E|------------------------------ 0|------------------------------ 9|
Classical Guitar Tablature http://classicalguitartablature.blogspot.com/
E|--------------------------------|--------------------------------|
B| 9------ 7-- 9-------------- 7--| 9------ 7-- 9---------- 7------|
G|---- 9------ 9---------- 9------|-- 9-------- 8------ 8----------|
D| 7---------- 7------ 7----------|------------ 7------ 7----------|
A|--------------------------------|---------------- 8--------------|
E|---------------- 8------------ 7|--------------------------------|
Classical Guitar Tablature http://classicalguitartablature.blogspot.com/
E|--------------------------------|--------------------------------|
B| 5------------------------------|---- 5---------- 5---------- 5--|
G| 4------------------------------|-------- 4---------- 4------ 6--|
D| 6---------------------- 4-- 5--| 6---------- 6---------- 6-- 7--|
A| 7------------------------------| 7------------------------------|
E|-------- 7------ 0--------------|---------------- 4--------------|
Classical Guitar Tablature http://classicalguitartablature.blogspot.com/
E|--------------------------------|--------------------------------|
B|-------------------- 5 7-- 8-- 9|------ 7-- 9---------- 7--------|
G|-------- 6---------- 6 6-- 6----|-- 9---------------- 8----------|
D|-------- 7---------- 5-- 5-- 5 9|---------------------------- 7--|
A|--------------------------------|-------------- 8----------------|
E| 5-------------- 6---------- 7--|--------------------------------|
Classical Guitar Tablature http://classicalguitartablature.blogspot.com/
E|--------------------------------|--------------------------------|
B| 5------------------------------|---- 5---------- 5---------- 5--|
G| 4------------------------------|-------- 4---------- 4------ 6--|
D| 6---------------------- 4-- 5--| 6---------- 6---------- 6-- 7--|
A| 7------------------------------| 7------------------------------|
E|------ 7-------- 0--------------|---------------- 4--------------|
Classical Guitar Tablature http://classicalguitartablature.blogspot.com/
E|--------------------------------|------------ 4------ 2----------|
B|-------------------- 2----------|---- 2-- 5------------ 5--------|
G|-------- 6---------- 4-- 5-- 4--| 3------------------------ 6----|
D|-------- 7---------- 2------ 2--| 2------------------------------|
A|--------------------------------|--------------------------------|
E| 5------------ 4----------------| 2------------ 0----------------|
Classical Guitar Tablature http://classicalguitartablature.blogspot.com/
E|--------------------------------|--------------------------------|
B| 7------------------------------|---- 5---------- 5---------- 5--|
G| 4-------------- 2--------------|-------- 4---------- 4------ 6--|
D| 7-------------- 1------ 4-- 5--| 6---------- 6---------- 6-- 7--|
A| 6------ 4------ 2--------------| 7------------------------------|
E|--------------------------------|---------------- 4--------------|
Classical Guitar Tablature http://classicalguitartablature.blogspot.com/
E|--------------------------------|--------------------------------|
B|-------------------- 5 7-- 8-- 9|------ 7-- 9---------- 7--------|
G|-------- 6---------- 6 6-- 6----|-- 9---------------- 8----------|
D|-------- 7---------- 5-- 5-- 5 9|---------------------------- 7--|
A|--------------------------------|-------------- 8----------------|
E| 5-------------- 6---------- 7--|--------------------------------|
Classical Guitar Tablature http://classicalguitartablature.blogspot.com/
E|--------------------------------| 4---------- 4------------------|
B| 5-------------------- 5-- 7----| 5-- 5-- 7-- 5---------- 5-- 7--|
G| 4---------------------------- 4|------------ 4------ 4----------|
D| 6------------------------------|--------------------------------|
A| 7------------------------------|---------------- 5--------------|
E|------ 7-------- 0------------ 0|------------------------------ 9|
Classical Guitar Tablature http://classicalguitartablature.blogspot.com/
E|--------------------------------|--------------------------------|
B| 9------ 7-- 9-------------- 7--| 9------ 7-- 9---------- 7------|
G|---- 9------ 9---------- 9------|-- 9-------- 8------ 8----------|
D| 7---------- 7------ 7----------|------------ 7------ 7----------|
A|--------------------------------|---------------- 8--------------|
E|---------------- 8------------ 7|--------------------------------|
Classical Guitar Tablature http://classicalguitartablature.blogspot.com/
E|-------------------- 4-- 5-- 6--| 7------ 9-- 7------------------|
B| 5------------------------------| 9------ 9-- 9------ 9--10--11--|
G| 4------------------------------| 9------ 9-- 9------------------|
D| 6------------------------------|--------------------------------|
A| 7------------------------------| 7------------------------------|
E|-------- 7------ 0--------------|---------------- 7--------------|
Classical Guitar Tablature http://classicalguitartablature.blogspot.com/
E| 7------ 9-- 7------ 4----------|------------ 2-- 4-- 2------ 2 4|
B| 9------ 9-- 9---------- 5------| 2-- 4-- 5 2---- 5------ 5---- 5|
G| 9------ 9-- 9-------------- 4--| 2------------ 5----------------|
D|--------------------------------| 2------------------------------|
A| 7---------------------------- 0|-------------- 0-------------- 7|
E|---------------- 7--------------|--------------------------------|
Classical Guitar Tablature http://classicalguitartablature.blogspot.com/
E|-------------------- 4-- 5-- 6--| 7------ 9-- 7------------------|
B|--------------------------------| 9------ 9-- 9------ 9--10--11--|
G|------------ 4------------------| 9------ 9-- 9------------------|
D|-------- 6----------------------|--------------------------------|
A|--------------------------------| 7---------------------------- 7|
E|---------------- 7--------------|---------------- 7--------------|
Classical Guitar Tablature http://classicalguitartablature.blogspot.com/
E| 7------ 9-- 7---- 7---- 910----|11--11------11------ 9-------- 7|
B| 9------ 9-- 9---- 9---- 9-- 9--| 9----------------------11---- 7|
G|---- 9------ 9------------------| 9------ 9------------------11--|
D|--------------------------------|--------------------------------|
A|------------------------------ 9|--------------------------------|
E|---------------- 7--------------|---------------- 9--------------|
Classical Guitar Tablature http://classicalguitartablature.blogspot.com/
E|------------------------ 5-- 6--| 7------ 9-- 7------------------|
B|------------------ 9---- 4------| 9------ 9-- 9------ 9--10--11--|
G| 8---- 9----------11---- 4------| 9------ 9-- 9------------------|
D|------ 7---------- 9------------|--------------------------------|
A|---------------------- 6--------| 7------------------------------|
E| 7------ 9----10----------------|---------------- 7--------------|
Classical Guitar Tablature http://classicalguitartablature.blogspot.com/
E| 7------ 9-- 7------ 4----------|------------ 2-- 4-- 2------ 2--|
B| 9------ 9-- 9---------- 5------| 2-- 4-- 5 2---- 5------ 5------|
G| 9------ 9-- 9-------------- 4--| 2------------ 5----------------|
D|--------------------------------| 2------------------------------|
A| 7---------------------------- 0|-------------- 0----------------|
E|---------------- 7--------------|--------------------------------|
Classical Guitar Tablature http://classicalguitartablature.blogspot.com/
E|--------------------------------|--------------------------------|
B| 5------------------------------| 5---------- 5---------- 5------|
G| 4---------- 4------ 4-- 3-- 4--| 6------ 6-- 6-------------- 6--|
D|------ 6------------ 4-- 4------|---- 7------ 5------ 5----------|
A| 7------------------------------|--------------------------------|
E|---------------- 4--------------| 5-------------- 6--------------|
Classical Guitar Tablature http://classicalguitartablature.blogspot.com/
E|------------ 7------ 4----------|-------- 0------ 4-- 2----------|
B|-------- 9-------------- 5------| 2---------- 2---------- 4------|
G|---- 9---------------------- 4--| 3-------------------------- 2--|
D| 9---------------------------- 2|---- 2--------------------------|
A|---------------- 4--------------|-------------- 2----------------|
E| 7---------------------------- 2|--------------------------------|
Classical Guitar Tablature http://classicalguitartablature.blogspot.com/
E|--------------------------------|--------------------------------|
B| 5------------------------------| 5---------- 5---------- 5------|
G| 4---------- 4------ 4-- 3-- 4--| 6------ 6-- 6-------------- 6--|
D|------ 6------------ 4-- 4------|---- 7------ 5------ 5----------|
A| 7------------------------------|--------------------------------|
E|---------------- 4--------------| 5-------------- 6--------------|
Classical Guitar Tablature http://classicalguitartablature.blogspot.com/
E|------------ 7------ 4----------|-------- 0------ 4-- 2----------|
B|-------- 9-------------- 5------| 2---------- 2---------- 4------|
G|---- 9---------------------- 4--| 3-------------------------- 2--|
D| 9---------------------------- 2|---- 2--------------------------|
A|---------------- 4--------------|-------------- 2----------------|
E| 7---------------------------- 2|--------------------------------|
Classical Guitar Tablature http://classicalguitartablature.blogspot.com/
E|--------------------------------|--------------------------------|
B| 5------------------------------| 5---------- 5---------- 5------|
G| 4---------- 4------ 4-- 3-- 4--| 6------ 6-- 6-------------- 6--|
D|------ 6------------ 4-- 4------|---- 7------ 5------ 5----------|
A| 7------------------------------|--------------------------------|
E|---------------- 4--------------| 5-------------- 6--------------|
Classical Guitar Tablature http://classicalguitartablature.blogspot.com/
E|------------ 7------ 4----------|-------- 0------ 4-- 2----------|
B|-------- 9-------------- 5------| 2---------- 2---------- 4------|
G|---- 9---------------------- 4--| 3-------------------------- 2--|
D| 9---------------------------- 2|---- 2--------------------------|
A|---------------- 4--------------|-------------- 2----------------|
E| 7---------------------------- 2|--------------------------------|
Classical Guitar Tablature http://classicalguitartablature.blogspot.com/
E|--------------------------------| 4---------- 4------------------|
B| 5-------------------- 5-- 7----| 5-- 5-- 7-- 5---------- 5-- 7--|
G| 4---------------------------- 4|------------ 4------ 4----------|
D| 6------------------------------|--------------------------------|
A| 7------------------------------|---------------- 5--------------|
E|-------- 7------ 0------------ 0|------------------------------ 9|
Classical Guitar Tablature http://classicalguitartablature.blogspot.com/
E|--------------------------------|--------------------------------|
B| 9------ 7-- 9-------------- 7--| 9------ 7-- 9---------- 7------|
G|---- 9------ 9---------- 9------|-- 9-------- 8------ 8----------|
D| 7---------- 7------ 7----------|------------ 7------ 7----------|
A|--------------------------------|---------------- 8--------------|
E|---------------- 8------------ 7|--------------------------------|
Classical Guitar Tablature http://classicalguitartablature.blogspot.com/
E|---------------- 0--------------|--------------------------------|
B| 5------ 5------ 0--------------|--------------------------------|
G| 4------ 4-------- 1------------|--------------------------------|
D| 6------ 6----------------------|--------------------------------|
A| 7-------------- 2--------------|--------------------------------|
E|-------- 7-------- 0------------|--------------------------------|
Classical Guitar Tablature http://classicalguitartablature.blogspot.com/

0 ความคิดเห็น:

แสดงความคิดเห็น