To celebrate the anniversary, I am giving you (finally...) : iPhone LickByNeck !!!!!!

Eternal Flame

The Bangles' 80s' hit fingerstyle chord melody guitar arrangement played in the key of G.
http://classicalguitartablature.blogspot.com/

http://classicalguitartablature.blogspot.com/
Eternal Flame played in the key of G.
http://classicalguitartablature.blogspot.com/
E|--------------------------------|---------------------- 0--------|
B| 0------ 0------ 1------ 1------| 0---- 0------ 1------ 0-- 3 0--|
G| 0------ 0------ 0------ 0------| 0---- 0------ 0-------- 0-- 0--|
D| 0-- 0------ 0-- 2-- 2------ 2--| 0-- 0------ 0 2-- 2------------|
A|--------------------------------|--------------------------------|
E| 3-------------- 3--------------| 3------------ 3----------------|
http://classicalguitartablature.blogspot.com/
E|--------------------------------|------ 0------------------------|
B| 0------ 0-- 1-- 3---------- 3--| 3-- 3 3---- 3-- 1--------------|
G| 0------ 2-- 2-- 0-------- 0----| 0-- 0-- 0-- 0-- 0------ 0-- 2--|
D|---- 0-- 0-- 0------ 0-- 4------|---- 2------ 0------ 2-- 0-- 2--|
A|------------------------ 5------| 3------ 2------ 0--------------|
E| 3------ 2------ 0--------------|------------------------ 3-- 2--|

E|---------------- 3-- 3-- 3-- 3--|---- 0--------------------------|
B| 0------ 0-- 3-- 0-- 0-- 0-- 1--|---- 1------ 3-- 5-- 3----------|
G| 0------ 2-- 2-- 0-- 0-- 0-- 0--|---- 0------ 0-- 5-- 4-- 0-- 2--|
D| 0-- 0-- 0-- 0------------------|------------ 0-- 5-- 3-- 0-- 2--|
A|------------------------ 5------| 3------ 2----------------------|
E| 3------ 2------ 0--------------|---------------- 5-- 4-- 3-- 2--|
http://classicalguitartablature.blogspot.com/
E|------ 3---- 3-- 2------ 7-- 7--|--------------------------------|
B| 0------ 5-- 5-- 1------ 7-- 8--|---- 8-------------- 7-- 8-- 5--|
G| 0------ 4-- 4 2---- 2-- 5-- 7--|---- 7------ 7 9---- 7-- 7-- 6--|
D|---- 0--------------------------|---- 9------ 9-- 7-- 5-- 5-- 5--|
A|------------------------ 6------| 7------------------------------|
E| 0------ 3---- 2----------------|--------10------ 9-- 7-- 6-- 5--|
http://classicalguitartablature.blogspot.com/
E| 5------------------------------|--------------------------------|
B| 5------ 5------ 3------------ 3|------ 3------ 3-- 3-- 1------ 3|
G| 4------ 2------ 2---------- 1 0|------ 4------ 5-- 5-- 0------ 2|
D|---- 4-- 2---------- 0------ 3--|-- 2-- 3---- 3 5-- 5-- 2--------|
A| 5------ 4-- 3-- 2------ 1---- 0|--------------------------------|
E|--------------------------------|-------- 4---- 3-------- 0-- 1 2|
http://classicalguitartablature.blogspot.com/
E|-------- 3----------------------|-------- 5-- 5-- 5--------------|
B|-------- 3------ 7-- 8----------|-------- 7-- 7-- 2---------- 2--|
G|-------- 2------ 5---------- 6--| 7------ 7-- 7 2------ 2------ 4|
D|---- 4---- 1---- 5---------- 8--| 7-- 7-------------- 2----------|
A|-------------- 7-------- 6------| 5------------ 5-------------- 5|
E|-------- 1----------------------|--------------------------------|
http://classicalguitartablature.blogspot.com/
E| 3-- 3-- 3-- 2-- 3 2------------|--------------------------------|
B| 3-- 3-- 3-- 2-- 2-- 3-- 3-- 5--| 6----------10-- 8-- 3------ 3--|
G|---- 4-- 4-- 4-- 2------ 3-- 5--| 5---------- 9-- 7-- 5-- 0-- 0--|
D|------------------------ 3-- 8--| 7----------10-- 5-- 3-- 0-- 0--|
A|---------------- 5------ 5-- 7--| 8-- 7-- 5----------------------|
E|--------------------------------|------------ 8-- 7-- 5-- 3-- 1--|
http://classicalguitartablature.blogspot.com/
E|--------------------------------|---------------- 2--------------|
B| 5-- 6-- 5-- 3-- 1--------------|-------- 3-- 5-- 3------ 5-- 7--|
G| 5-- 5-- 4-- 0-- 0--------------|---- 2-- 2-- 2-- 2-- 7-- 7-- 5--|
D| 5-- 3-- 5-- 0-- 2--------------|---- 4-- 2-- 2------ 5-- 7-- 4--|
A| 7-- 5-- 3-- 2 0----------------| 5---- 4-------- 2--------------|
E|-------------------- 3-- 2-- 0--|-------------------- 6-- 5-- 4--|
http://classicalguitartablature.blogspot.com/
E| 5------------------------------|---------------- 5--------------|
B| 5---------- 8-- 8------------10|---------------- 5------ 7------|
G| 4-- 4------ 5-- 7---------- 7 9|------------ 9-- 5-- 5-- 4------|
D|------------ 5------ 5------ 7--|----10------ 9---------- 7-- 7--|
A|--------------------------------|---------------- 5------ 6------|
E| 3------ 5------ 6------ 7---- 8|-------- 9----------------------|
http://classicalguitartablature.blogspot.com/
E| 7------ 7-------- 7 8-- 7------|---------------- 5--------------|
B| 8------ 7-------- 8 8--10--10--| 8-------------- 8---------- 8--|
G|---- 7------ 5---- 9 9-- 9-- 9--| 8---------- 7-- 7---------- 6--|
D|---------------------------- 7--|---- 7------ 5------ 5------ 5--|
A| 7------ 6----------------------|--------------------------------|
E|----------------10---- 9--------| 8------ 7------ 6------ 5---- 4|
http://classicalguitartablature.blogspot.com/
E| 2-- 0--------------------------|--------------------------------|
B| 3------ 3-- 3-------------- 0--| 1-- 0---------------------- 0--|
G| 4------ 3-- 3-- 2---------- 0--| 0-- 0-- 5------------------ 0--|
D|------ 2---- 2------ 0------ 1--| 2-- 2-- 5-- 5------ 5------ 2--|
A|--------------------------------|-------- 6------ 5------ 4---- 3|
E|------ 3-------- 2------ 1------| 0------------------------------|
http://classicalguitartablature.blogspot.com/
E|--------------------------------|-------- 5-- 5-- 5--------------|
B| 1-- 0-- 1------ 1-- 3-- 5-- 5--|-------- 7-- 7-- 2---------- 2--|
G| 0------ 0-- 0-- 0-- 0-- 2-- 2--| 7------ 7-- 7 2------ 2------ 4|
D| 0------ 0------ 2-- 0-- 2-- 2--| 7-- 7-------------- 2----------|
A|------ 1-------- 0-- 2-- 3-- 4--| 5------------ 5-------------- 5|
E|--------------------------------|--------------------------------|
http://classicalguitartablature.blogspot.com/
E| 3-- 3-- 3-- 2-- 3 2------------|--------------------------------|
B| 3-- 3-- 3-- 2-- 2-- 3-- 3-- 5--| 6----------10-- 8-- 3------ 3--|
G|---- 4-- 4-- 4-- 2------ 3-- 5--| 5---------- 9-- 7-- 5-- 0-- 0--|
D|------------------------ 3-- 8--| 7----------10-- 5-- 3-- 0-- 0--|
A|---------------- 5------ 5-- 7--| 8-- 7-- 5----------------------|
E|--------------------------------|------------ 8-- 7-- 5-- 3-- 1--|
http://classicalguitartablature.blogspot.com/
E|--------------------------------|---------------- 2--------------|
B| 5-- 6-- 5-- 3-- 1--------------|-------- 3-- 5-- 3------ 5-- 7--|
G| 5-- 5-- 4-- 0-- 0--------------|---- 2-- 2-- 2-- 2-- 7-- 7-- 5--|
D| 5-- 3-- 5-- 0-- 2--------------|---- 4-- 2-- 2------ 5-- 7-- 4--|
A| 7-- 5-- 3-- 2 0----------------| 5---- 4-------- 2--------------|
E|-------------------- 3-- 2-- 0--|-------------------- 6-- 5-- 4--|
http://classicalguitartablature.blogspot.com/
E| 5------------------------------|---------------- 5------ 5------|
B| 5---------- 8-- 8------------10|---------------- 5------ 4------|
G| 4-- 4------ 5-- 7---------- 7 9|------------ 9-- 5-- 5-- 2------|
D|------------ 5------ 5------ 7--|----10------ 9-------------- 4--|
A|--------------------------------|---------------- 5--------------|
E| 3------ 5------ 6------ 7---- 8|-------- 9-------------- 2------|
http://classicalguitartablature.blogspot.com/
E|--------------------------------|------ 0------------------------|
B| 0------ 0-- 1-- 3---------- 3--| 3-- 3 3---- 3-- 1--------------|
G| 0------ 2-- 2-- 0-------- 0----| 0-- 0-- 0-- 0-- 0------ 0-- 2--|
D|---- 0-- 0-- 0------ 0-- 4------|---- 2------ 0------ 2-- 0-- 2--|
A|------------------------ 5------| 3------ 2------ 0--------------|
E| 3------ 2------ 0--------------|------------------------ 3-- 2--|
http://classicalguitartablature.blogspot.com/
E|---------------- 3-- 3-- 3-- 3--|---- 0--------------------------|
B| 0------ 0-- 3-- 0-- 0-- 0-- 1--|---- 1------ 3-- 5-- 3----------|
G| 0------ 2-- 2-- 0-- 0-- 0-- 0--|---- 0------ 0-- 5-- 4-- 0-- 2--|
D| 0-- 0-- 0-- 0------------------|------------ 0-- 5-- 3-- 0-- 2--|
A|------------------------ 5------| 3------ 2----------------------|
E| 3------ 2------ 0--------------|---------------- 5-- 4-- 3-- 2--|
http://classicalguitartablature.blogspot.com/
E|------ 3---- 3-- 2------ 7-- 7--|--------------------------------|
B| 0------ 5-- 5-- 1------ 7-- 8--|---- 8-------------- 7-- 8-- 5--|
G| 0------ 4-- 4 2---- 2-- 5-- 7--|---- 7------ 7 9---- 7-- 7-- 6--|
D|---- 0--------------------------|---- 9------ 9-- 7-- 5-- 5-- 5--|
A|------------------------ 6------| 7------------------------------|
E| 0------ 3---- 2----------------|--------10------ 9-- 7-- 6-- 5--|
http://classicalguitartablature.blogspot.com/
E| 5---------------------------- 8|------ 7------------------------|
B| 5------ 5------ 3------------ 5|------ 8------10-- 8-- 8-- 8----|
G| 4------ 2------ 2---------- 1--|-- 5-- 7------ 9-- 9-- 9-- 9-- 5|
D|---- 4-- 2---------- 0------ 3--|------------ 710--10-- 9-- 9----|
A| 5------ 4-- 3-- 2------ 1------|------------------------------ 5|
E|------------------------------ 5|------ 7------ 8------ 9--------|
http://classicalguitartablature.blogspot.com/
E| 8------ 7------ 5--------------|10-------------------- 3---- 3--|
B| 7------ 7------ 8-- 8-- 8-- 8--|10---------- 8-- 8------ 5-- 6--|
G|---- 5 5---- 5-- 5-- 5-- 9-- 9--| 8-- 8------ 7-- 7------ 5-- 5--|
D|-------------------- 5-- 9-- 9--|------------ 7------ 5----------|
A|------ 6------ 7---- 6----------|--------------------------------|
E|------------------------10-- 9--| 8------ 7------ 6------ 5-- 4 3|
http://classicalguitartablature.blogspot.com/
E|-- 3----------------------------|--------------------------------|
B|-- 3----------------------------|--------------------------------|
G| 2------------------------------|--------------------------------|
D| 2------------------------------|--------------------------------|
A| 2------------------------------|--------------------------------|
E|--------------------------------|--------------------------------|
http://classicalguitartablature.blogspot.com/

0 ความคิดเห็น:

แสดงความคิดเห็น