To celebrate the anniversary, I am giving you (finally...) : iPhone LickByNeck !!!!!!

Every Breath You Take

Classic The Police's hit fingerstyle chord melody guitar arrangement played in the key of E.


http://classicalguitartablature.blogspot.com/
Every Breath You Take played in the key of E.
Classical Guitar Tablature http://classicalguitartablature.blogspot.com/
E|--------------------------------|--------------------------------|
B|-------- 9---------- 7------ 7--|---- 5---- 5-------- 0---- 0-- 2|
G|-------- 8---------- 6------ 6--|---- 4---- 4-------- 1---- 1----|
D|-------- 9---------- 6------ 6--|---- 6---- 6-------- 2---- 2----|
A|--------------------------------|--------------------------------|
E| 0-------------- 0--------------| 0------------ 0----------------|
Classical Guitar Tablature http://classicalguitartablature.blogspot.com/
E|--------------------------------|--------------------------------|
B|-------- 2---------- 4---- 5----|---- 7----------11------------10|
G| 3------ 3---------- 3---- 3----|---- 6---- 6--11--------11---- 9|
D| 4------ 4---------- 4---- 4----|---- 8---- 8----11------11----11|
A|--------------------------------|--------------------------------|
E| 0-------------- 0------------ 0|---------------- 0--------------|
Classical Guitar Tablature http://classicalguitartablature.blogspot.com/
E|------------------------------ 5|------ 4---------- 2---- 0------|
B|------ 9---------- 7-- 5------ 5|------ 5---------- 1---- 1---- 5|
G|------ 9---------- 6-- 6------ 5|------ 5---------- 2---- 2---- 4|
D|------11---------- 7-- 7--------|--------------------------------|
A|--------------------------------|--------------------------------|
E| 0------------ 0-------------- 0|-------------- 0----------------|
Classical Guitar Tablature http://classicalguitartablature.blogspot.com/
E|--------------------------------|-- 4---- 5 4-------- 2----------|
B|-------- 5---------- 7----------|-- 5---- 5 5---------------- 1--|
G|-------- 4-------- 6-------- 6--|-- 6---- 6 5------ 2---- 2------|
D| 6------ 6-------- 8-------- 8--|--------------------------------|
A|--------------------------------|--------------------------------|
E| 0------------ 0----------------| 0-------------- 0--------------|
Classical Guitar Tablature http://classicalguitartablature.blogspot.com/
E| 0------ 0----------------------|---------- 4-------------- 0----|
B| 0------ 0----------------------|---- 910-- 5------ 7------ 2----|
G| 1------ 1---------- 4---- 4----|-- 9-- 9---- 4---- 4------ 3----|
D|-------------------- 6---- 6----|-- 9-- 9---------- 6------------|
A|--------------------------------|--------------------------------|
E| 0-------------- 0--------------| 0------------ 0------ 0--------|
Classical Guitar Tablature http://classicalguitartablature.blogspot.com/
E|--------------------------------|--------------------------------|
B|------ 2---------- 7------ 7----|---------- 9------10------ 5----|
G|------ 3---------- 6------ 6----|-- 9-- 9-- 9------ 9------ 6----|
D|------ 4------ 8-- 8------ 8----|--11--11--11------11------ 7----|
A|--------------------------------|--------------------------------|
E| 0------------ 0-------------- 0|-------------- 0----------------|
Classical Guitar Tablature http://classicalguitartablature.blogspot.com/
E|---------- 5------ 4------ 2----|-- 2-- 0-- 4------ 2------------|
B|-- 5-- 5-- 5------ 5------ 1----|-- 1-- 1-- 5-------------- 1-- 5|
G|-- 6-- 6-- 4------ 4------ 2----|-- 2-- 2-- 5------ 2-- 2------ 4|
D|-- 7-- 7------------------------|--------------------------------|
A|--------------------------------|--------------------------------|
E| 0-------------- 0------------ 0|-------------- 0----------------|
Classical Guitar Tablature http://classicalguitartablature.blogspot.com/
E|--------------------------------|-- 4---- 5 4-------- 2----------|
B|-------- 5---------- 7----------|-- 5---- 5 5---------------- 1--|
G|-------- 4-------- 6-------- 6--|-- 6---- 6 5------ 2---- 2------|
D| 6------ 6-------- 8-------- 8--|--------------------------------|
A|--------------------------------|--------------------------------|
E| 0------------ 0----------------| 0-------------- 0--------------|
Classical Guitar Tablature http://classicalguitartablature.blogspot.com/
E| 0------ 0----------------------|---------- 4-------------- 0----|
B| 0------ 0----------------------|---- 910-- 5------ 7------ 2----|
G| 1------ 1---------- 4---- 4----|-- 9-- 9---- 4---- 4------ 3----|
D|-------------------- 6---- 6----|-- 9-- 9---------- 6------------|
A|--------------------------------|--------------------------------|
E| 0-------------- 0--------------| 0------------ 0------ 0--------|
Classical Guitar Tablature http://classicalguitartablature.blogspot.com/
E|--------------------------------|--------------------------------|
B|------ 2---------- 7------ 7----|---------- 9------10------ 5----|
G|------ 3---------- 6------ 6----|-- 9-- 9-- 9------ 9------ 6----|
D|------ 4------ 8-- 8------ 8----|--11--11--11------11------ 7----|
A|--------------------------------|--------------------------------|
E| 0------------ 0-------------- 0|-------------- 0----------------|
Classical Guitar Tablature http://classicalguitartablature.blogspot.com/
E|---------- 5------ 4------ 2----|-- 2-- 0-- 4------ 2---------- 0|
B|-- 5-- 5-- 5------ 5------ 1----|-- 1-- 1-- 5-------------- 1-- 0|
G|-- 6-- 6-- 4------ 4------ 2----|-- 2-- 2-- 5------ 2-- 2------ 1|
D|-- 7-- 7------------------------|--------------------------------|
A|--------------------------------|--------------------------------|
E| 0-------------- 0------------ 0|-------------- 0-------------- 0|
Classical Guitar Tablature http://classicalguitartablature.blogspot.com/
E|------ 0------------------------|---------------------- 7------ 9|
B|------ 0------------ 5---- 5----|------ 5------ 9------10--10--10|
G|------ 1------------ 4---- 4----|------ 4------ 9------ 7-- 7----|
D|-------------------- 2---- 2----|------ 6------ 9---------- 7----|
A|--------------------------------|-------------- 7------ 9--------|
E|-------------- 4-------------- 7|--------------------------------|
Classical Guitar Tablature http://classicalguitartablature.blogspot.com/
E|------ 9------------------------|-- 9---- 9-- 7------------------|
B|------10------------------------|----10--10-- 7-------- 7------ 9|
G| 9---- 9------------ 9------ 9--|----10--10-- 9-------------- 9 6|
D|-------------------- 9------ 9--|-------------------- 7----------|
A|12------------11----------------|10-------------- 9--------------|
E|--------------------------------|--------------------------------|
Classical Guitar Tablature http://classicalguitartablature.blogspot.com/
E|--------------------------------|--12-- 9----12----12---- 9--12--|
B|-------- 9----------------------|--10--10---- 9---- 9---- 9--14--|
G|-------- 6---------- 6------ 6--|---- 9 9---- 9------ 9-- 8--11--|
D| 6------ 6---------- 6------ 6--|--------------------------------|
A| 7------------ 6----------------|--------------------------------|
E|--------------------------------| 9-------------- 7--------------|
Classical Guitar Tablature http://classicalguitartablature.blogspot.com/
E|--------------------------------|--14--14------------------------|
B|----14------------12------12----|--11--11--14--------14----12----|
G|----11----11------ 9------ 9----|-- 9------11------11------11----|
D|----11----11------ 9------ 9----|--------------------11------ 9--|
A|13------------11-------------- 9|--------------------------------|
E|--------------------------------|----------------12--------------|
Classical Guitar Tablature http://classicalguitartablature.blogspot.com/
E|--------------------------------|--------------------------------|
B|--------------------------------|---- 9--10-- 9------ 7---- 9----|
G|------11------------11------11--|---- 9-- 9-- 9-------- 9-- 9----|
D|------ 9------------ 9------ 9--|---- 7-- 7-- 7-------------- 9--|
A|--------------------------------|--------------------------------|
E|11--------------10--------------| 9-------------- 8--------------|
Classical Guitar Tablature http://classicalguitartablature.blogspot.com/
E|--------------------------------|-- 4-- 5-- 4--------------------|
B|-------- 9----------------------|-- 5-- 5-- 5------ 5-- 7--------|
G|------ 9---------- 6------ 6----|---- 6 6-- 6------ 6------ 6----|
D|------ 9---------- 7------ 7----|--------------------------------|
A|--------------------------------|--------------------------------|
E| 7------------ 7-------------- 6|-------------- 6----------------|
Classical Guitar Tablature http://classicalguitartablature.blogspot.com/
E|--------------------------------|------------ 4------ 5----------|
B| 5------ 5---------- 5------ 5--|---- 5-- 5-- 5------ 5------ 5--|
G| 5------ 5---------- 5------ 5--|---- 4-- 4-- 4------ 4------ 4--|
D| 5------ 5---------- 4------ 4--|---- 4-- 4------------------ 5--|
A|--------------------------------|--------------------------------|
E| 5-------------- 5--------------| 4-------------- 4--------------|
Classical Guitar Tablature http://classicalguitartablature.blogspot.com/
E|------------ 5---- 4-------- 2--|------ 2-------- 4------ 2------|
B|---- 5------ 5---- 5-------- 3--|---- 3-- 3-- 5-- 2------ 2------|
G|---- 4-- 4-- 4------ 4------ 2--|---- 2-- 2-- 2-- 2-- 2----------|
D|-------- 5----------------------|---- 2------ 2------------------|
A|--------------------------------|--------------------------------|
E| 3-------------- 3---- 3--------| 2------------ 0----------------|
Classical Guitar Tablature http://classicalguitartablature.blogspot.com/
E|--------------------------------|--------------------------------|
B|--------------------------------|------------------ 8------ 8----|
G| 9------ 9-------- 9------ 9----|-- 9------ 9------ 8------ 8----|
D| 9------ 9-------- 7------ 7----|-- 7------ 7------ 7------ 7----|
A|--------------------------------|--------------------------------|
E|10------------ 9-------------- 8|-------------- 7--------------12|
Classical Guitar Tablature http://classicalguitartablature.blogspot.com/
E|--12----12--12------10------10--|----10------12------10------10--|
B|--12----12--12------12------12--|----12------10------10------ 7--|
G|--12----12--10------10------12--|----12------ 9------ 9------ 7--|
D|--------------------------------|--------------------------------|
A|--------------------------------|--------------------------------|
E|----------------11--------------|10-------------- 9--------------|
Classical Guitar Tablature http://classicalguitartablature.blogspot.com/
E|---- 7--10--10--10-- 7------10--|------------10------10----10----|
B|---- 7-- 7-- 7-- 7------10--10--|----12------11------11----11----|
G|---- 7------ 7-- 7----------11--|----11------11------11----11----|
D|------------ 7------------------|----10--------------------------|
A|--------------------------------| 0--------------11--------------|
E| 8-------------- 7--------------|--------------------------------|
Classical Guitar Tablature http://classicalguitartablature.blogspot.com/
E|------10--10--10----10----10----|--10------12--------------------|
B|--10----------10----10---- 8----|-- 8------12------12------12----|
G|-- 9---------- 9---- 9---- 9----|---- 9----10------10------10----|
D|--------------------------------|------------------10--------10--|
A|10-------------- 9------------ 7|--------------------------------|
E|--------------------------------|--------------11--------------10|
Classical Guitar Tablature http://classicalguitartablature.blogspot.com/
E|------10--10--10-- 7------10----|-- 7------10--------10------10--|
B|--10--10--10-- 7------10-- 8----|-- 8------ 8--------11------10--|
G|--11--11--11-- 7------------ 7--|-- 7------ 9--------11------ 9--|
D|--12----------------------------|--------------------------------|
A|--------------------------------|------------ 0------11----------|
E|---------------- 8---------- 7--|---- 6--------------------------|
Classical Guitar Tablature http://classicalguitartablature.blogspot.com/
E|------10--10--10---- 7------10--|------------10------ 7------12--|
B|--10--10--10-- 8---- 8------13--|----12------12------ 7------ 9--|
G|-- 9-- 9---- 9 8---- 7------12--|----12------10------ 7------ 9--|
D|--------------------------------|----12--------------------------|
A|10------ 9---- 8-------- 7------|--------------------------------|
E|----------------------------11--|----10------ 9------ 8----------|
Classical Guitar Tablature http://classicalguitartablature.blogspot.com/
E|--------------------------------|---------------------- 7------ 9|
B|-------- 9----------------------|-------------- 9------10--10--10|
G|-------- 9---------- 9---- 9----|------ 9------ 9------ 7--------|
D|-------------------- 7---- 7----|------ 9---- 9------------------|
A|--------------------------------|-------------------- 9----------|
E| 7------------ 9--------------11|------------12------------------|
Classical Guitar Tablature http://classicalguitartablature.blogspot.com/
E|------ 9------------------------|-- 9---- 9-- 7------------------|
B|------10------------------------|----10--10-- 7-------- 7------ 9|
G| 9---- 9------------ 9------ 9--|----10--10-- 9-------------- 9 6|
D|-------------------- 9------ 9--|-------------------- 7----------|
A|12------------11----------------|10-------------- 9--------------|
E|--------------------------------|--------------------------------|
Classical Guitar Tablature http://classicalguitartablature.blogspot.com/
E|--------------------------------|--12-- 9----12----12---- 9--12--|
B|-------- 9----------------------|--10--10---- 9---- 9---- 9--14--|
G|-------- 6---------- 6------ 6--|---- 9 9---- 9------ 9-- 8--11--|
D| 6------ 6---------- 6------ 6--|--------------------------------|
A| 7------------ 6----------------|--------------------------------|
E|--------------------------------| 9-------------- 7--------------|
Classical Guitar Tablature http://classicalguitartablature.blogspot.com/
E|--------------------------------|--14--14------------------------|
B|----14------------12------12----|--11--11--14--------14----12----|
G|----11----11------ 9------ 9----|-- 9------11------11------11----|
D|----11----11------ 9------ 9----|--------------------11------ 9--|
A|13------------11-------------- 9|--------------------------------|
E|--------------------------------|----------------12--------------|
Classical Guitar Tablature http://classicalguitartablature.blogspot.com/
E|--------------------------------|--------------------------------|
B|--------------------------------|---- 9--10-- 9------ 7---- 9----|
G|------11------------11------11--|---- 9-- 9-- 9-------- 9-- 9----|
D|------ 9------------ 9------ 9--|---- 7-- 7-- 7-------------- 9--|
A|--------------------------------|--------------------------------|
E|11--------------10--------------| 9-------------- 8--------------|
Classical Guitar Tablature http://classicalguitartablature.blogspot.com/
E|--------------------------------|-- 4-- 5-- 4--------------------|
B|-------- 9----------------------|-- 5-- 5-- 5------ 5-- 7--------|
G|------ 9---------- 6------ 6----|---- 6 6-- 6------ 6------ 6----|
D|------ 9---------- 7------ 7----|--------------------------------|
A|--------------------------------|--------------------------------|
E| 7------------ 7-------------- 6|-------------- 6----------------|
Classical Guitar Tablature http://classicalguitartablature.blogspot.com/
E|--------------------------------|------------ 4------ 5----------|
B| 5------ 5---------- 5------ 5--|---- 5-- 5-- 5------ 5------ 5--|
G| 5------ 5---------- 5------ 5--|---- 4-- 4-- 4------ 4------ 4--|
D| 5------ 5---------- 4------ 4--|---- 4-- 4------------------ 5--|
A|--------------------------------|--------------------------------|
E| 5-------------- 5--------------| 4-------------- 4--------------|
Classical Guitar Tablature http://classicalguitartablature.blogspot.com/
E|------------ 5---- 4-------- 2--|------ 2-------- 4------ 2------|
B|---- 5------ 5---- 5-------- 3--|---- 3-- 3-- 5-- 2------ 2------|
G|---- 4-- 4-- 4------ 4------ 2--|---- 2-- 2-- 2-- 2-- 2----------|
D|-------- 5----------------------|---- 2------ 2------------------|
A|--------------------------------|--------------------------------|
E| 3-------------- 3---- 3--------| 2------------ 0----------------|
Classical Guitar Tablature http://classicalguitartablature.blogspot.com/
E|---- 7-- 7-- 7------ 7---- 7----|-- 7-- 7---- 7-------------- 7--|
B|---- 4-- 4-- 5------ 5---- 7----|-- 7-- 7---- 9------ 9------ 7--|
G|---- 4-- 4-- 4------ 4------ 4--|-- 4-- 4---- 8------ 8------ 6--|
D|--------------------------------|--------------------------------|
A|--------------------------------|--------------------------------|
E| 0-------------- 0--------------| 0-------------- 0--------------|
Classical Guitar Tablature http://classicalguitartablature.blogspot.com/
E|---- 7------ 7------ 7------ 7--|-- 7------ 7-------- 7------ 7--|
B|---- 7------ 7------ 7------ 7--|-- 7------ 7-------- 7------ 5--|
G|---- 6------ 6------ 6------ 6--|-- 6------ 6-------- 6------ 6--|
D|-------- 8----------------------|------ 8------------------------|
A|--------------------------------|--------------------------------|
E| 0-------------- 0--------------| 0------------ 0----------------|
Classical Guitar Tablature http://classicalguitartablature.blogspot.com/
E|-- 7-- 7-- 7------ 7-------- 7--|------ 4-- 5-- 4-------- 2------|
B|-- 5-- 5-- 5------ 5-------- 5--|------ 5-- 5-- 5-------- 1------|
G|-- 6------ 6------ 6-------- 6--|-- 5------ 5---- 5-- 5 2---- 2--|
D|--------------------------------|--------------------------------|
A|--------------------------------|--------------------------------|
E| 0------------ 0-------------- 0|---------------- 0--------------|
Classical Guitar Tablature http://classicalguitartablature.blogspot.com/
E|---- 7-- 7-- 7------ 7---- 7----|-- 7-- 7---- 7-------------- 7--|
B|---- 4-- 4-- 5------ 5---- 7----|-- 7-- 7---- 9------ 9------ 7--|
G|---- 4-- 4-- 4------ 4------ 4--|-- 4-- 4---- 8------ 8------ 6--|
D|--------------------------------|--------------------------------|
A|--------------------------------|--------------------------------|
E| 0-------------- 0--------------| 0-------------- 0--------------|
Classical Guitar Tablature http://classicalguitartablature.blogspot.com/
E|---- 7------ 7------ 7------ 7--|-- 7------ 7-------- 7------ 7--|
B|---- 7------ 7------ 7------ 7--|-- 7------ 7-------- 7------ 5--|
G|---- 6------ 6------ 6------ 6--|-- 6------ 6-------- 6------ 6--|
D|-------- 8----------------------|------ 8------------------------|
A|--------------------------------|--------------------------------|
E| 0-------------- 0--------------| 0------------ 0----------------|
Classical Guitar Tablature http://classicalguitartablature.blogspot.com/
E|-- 7-- 7-- 7------ 7-------- 7--|-------- 4-- 5---- 4------------|
B|-- 5-- 5-- 5------ 5-------- 5--|-------- 5-- 5---- 5------------|
G|-- 6------ 6------ 6-------- 6--|---- 5------------ 5---- 5------|
D|--------------------------------|--------------------------------|
A|--------------------------------|--------------------------------|
E| 0------------ 0-------------- 0|---------------- 0--------------|
Classical Guitar Tablature http://classicalguitartablature.blogspot.com/
E|-- 2----------------------------|-------- 0-------------- 0------|
B|-- 1----------------------------|-------- 4---------- 4----------|
G| 2-------- 2--------------------|------ 4---------- 4------------|
D|--------------------------------|-------------- 4------------ 4--|
A|--------------------------------|--------------------------------|
E| 0------------------------------|------ 0------------------------|
Classical Guitar Tablature http://classicalguitartablature.blogspot.com/
E|-------------------- 0----------|--------------------------------|
B|-------- 4----------------------|--------------------------------|
G|-- 4----------------------------|--------------------------------|
D|--------------------------------|--------------------------------|
A|--------------------------------|--------------------------------|
E|--------------------------------|--------------------------------|

0 ความคิดเห็น:

แสดงความคิดเห็น