To celebrate the anniversary, I am giving you (finally...) : iPhone LickByNeck !!!!!!

Fantasia Bulan Madu (EASY)

Classic Malaysian rock ballad fingerstyle solo guitar arrangement played in the key of Gm.
You need to install the Flash plugin - http://www.webestools.com/

http://classicalguitartablature.blogspot.com/
Fantasia Bulan Madu - EASY ARRANGEMENT played in the key of Gm.

E|--------------------------------|--------------------------------|
B| 8---------------------------- 4|------------------------------ 3|
G| 7------ 7-------------- 7------| 3-------------- 5------------ 3|
D|---- 8------ 8------ 8------ 8--|---- 5------ 5------ 5---- 4-- 3|
A| 6-------------- 5--------------| 3------------------------------|
E|--------------------------------|-------- 6------ 5------ 4------|
http://classicalguitartablature.blogspot.com/
E|--------------------------------|--------------------------------|
B|------------ 3-- 3--------------|---- 3---------------------- 3--|
G|------ 3---- 3-- 3------ 5 3-- 5|------------ 5---------- 5------|
D|---- 3------ 3-- 3-- 3-- 3-- 3 4|------ 4------------ 4----------|
A|--------------------------------| 5-------------- 5--------------|
E| 3------------------------------|--------------------------------|
http://classicalguitartablature.blogspot.com/
E| 6-------- 6-- 6-- 5-- 3--------|--------------------------------|
B| 3---- 3---------- 3-- 3-- 6-- 6|---- 4------------------------ 8|
G| 3-- 3-------- 3-- 3-- 3------ 3|---- 3---- 3---------- 3-- 5-- 7|
D|------------------------------ 5|---- 5 5---------- 5------------|
A|------------------------------ 3|---------------- 3--------------|
E| 3-------------- 3--------------|--------------------------------|
http://classicalguitartablature.blogspot.com/
E|--------------------------------|--------------------------------|
B|---------- 8-- 8-- 6---------- 3|-- 2------------ 2-------- 2-- 3|
G|------ 7------ 7------ 8-- 7-- 2|-- 2-------- 2-- 2-- 2-------- 5|
D| 8-- 8-------- 8-------------- 2|-------- 2---- 2----------------|
A| 6------------ 6-------------- 0|-------------- 0-------------- 5|
E|--------------------------------|--------------------------------|
http://classicalguitartablature.blogspot.com/
E|--------------------------------|--------------------------------|
B|--------------------------------|------------------------------ 3|
G|------ 5---------------- 2------|------ 7-------------- 5------ 3|
D|---- 4------ 4------ 4---- 4----|---- 5---- 5------ 4-------- 4 3|
A|---------------- 3--------------|--------------------------------|
E|--------------------------------| 6-------------- 5--------------|
http://classicalguitartablature.blogspot.com/
E|--------------------------------|--------------------------------|
B|------------ 3-- 3--------------|---- 3---------------------- 3--|
G|------ 3---- 3-- 3------ 5 3-- 5|------------ 5---------- 5------|
D|---- 3------ 3-- 3-- 3-- 3-- 3 4|------ 4------------ 4----------|
A|--------------------------------| 5-------------- 5--------------|
E| 3------------------------------|--------------------------------|
http://classicalguitartablature.blogspot.com/
E| 6-------- 6-- 6-- 5-- 3--------|--------------------------------|
B| 3---- 3---------- 3-- 3-- 6-- 6|---- 4------------------------ 8|
G| 3-- 3-------- 3-- 3-- 3------ 3|---- 3---- 3---------- 3-- 5-- 7|
D|------------------------------ 5|---- 5 5---------- 5------------|
A|------------------------------ 3|---------------- 3--------------|
E| 3-------------- 3--------------|--------------------------------|
http://classicalguitartablature.blogspot.com/
E|--------------------------------|--------------------------------|
B|---------- 8-- 8-- 6---------- 3|-- 2------------ 2-------- 2-- 3|
G|------ 7------ 7------ 8-- 7-- 2|-- 2-------- 2-- 2-- 2-------- 5|
D| 8-- 8-------- 8-------------- 2|-------- 2---- 2----------------|
A| 6------------ 6-------------- 0|-------------- 0-------------- 5|
E|--------------------------------|--------------------------------|
http://classicalguitartablature.blogspot.com/
E|--------------------------------|--------------------------------|
B|--------------------------------|--------------------------------|
G|------ 5---------------- 2------|------ 7-------------- 5--------|
D|---- 4------ 4------ 4---- 4----|---- 5---- 5------ 4-------- 4--|
A|---------------- 3--------------|--------------------------------|
E|--------------------------------| 6-------------- 5--------------|
http://classicalguitartablature.blogspot.com/
E| 6------------------------------|-- 6-- 6-- 6-- 6-- 6-- 6-- 6----|
B| 4---------- 4------------ 4----|-- 4-- 4-- 4-- 4-- 4-- 4-- 4--11|
G| 3------ 3------------ 3--------|---- 3 3-- 3-- 3-- 3-- 3-- 3-- 8|
D|---- 5------------ 5------------|--------------------------------|
A| 3-------------- 3--------------| 3------------ 3----------------|
E|--------------------------------|--------------------------------|
http://classicalguitartablature.blogspot.com/
E|--------------------------------|--------------------------------|
B|------10------------------------|--10--10--10--10---- 8----10----|
G|------ 8-------------- 8--------|-- 8-- 8-- 8-- 8---- 8---- 8----|
D|1010--------10----10------10----|--10--10--10--10----10----10----|
A| 8------------ 8-------------- 9|-------------- 9----------------|
E|--------------------------------|--------------------------------|
http://classicalguitartablature.blogspot.com/
E| 6 5 3--------------------------|--------------------------------|
B| 3 3 3---------------------- 3--|------------ 3-------------- 3--|
G| 3 3 3------ 3---------- 3------|-------- 3------------ 4--------|
D|------ 3------------ 3----------|---- 3-------------- 3----------|
A|--------------------------------|---------------- 4--------------|
E| 3-------------- 3--------------| 3------------------------------|
http://classicalguitartablature.blogspot.com/
E|--------------------------------|------------------10-- 8--------|
B|11----------11------------------|----1111--11--11------------11--|
G| 8------ 8-------------- 8------|---- 8 8-- 8---- 8--------------|
D| 8-- 8-------------- 8------ 8--|---- 8-- 8 8---- 8--------------|
A|--------------------------------|--------------------------------|
E| 8-------------- 8--------------| 8------------------------------|
http://classicalguitartablature.blogspot.com/
E|--------------------------------|--------------11----10---- 8-- 8|
B|11----10------------------------|----10--1010--10----10----10----|
G| 8---- 8-------------- 8--------|---- 8-- 8 8---- 8-- 8---- 8--10|
D|--10--------10------10------10--|--------------------------------|
A| 8-------------- 8--------------| 9------------ 9----------------|
E|--------------------------------|--------------------------------|
http://classicalguitartablature.blogspot.com/
E|--------------------------------|---- 6 6-- 6-- 6---- 5----------|
B|--11----------------------------|---- 3 3---- 3-- 3-- 7------ 8--|
G|--10------10----------10--------|---- 3 3---- 3-- 3-- 5------ 7--|
D|-- 8-- 8---------- 8-------- 8--|---------------------------- 5--|
A|10------------10----------------|--------------------------------|
E|--------------------------------| 3-------------- 3---- 5---- 6--|
http://classicalguitartablature.blogspot.com/
E|--------------------------------|--------------------------------|
B| 4------------------------------|-- 4---- 4-- 4-- 6-- 4---- 3-- 2|
G| 3------ 3-- 3-------- 3--------|-- 3-- 3---- 3-- 3-- 3---- 3-- 2|
D| 5-- 5-------------- 5------ 5--|-- 5---- 5-- 5-- 5-- 5---- 5-- 2|
A| 3-------------- 3------------ 3|-------------- 3-------------- 0|
E|--------------------------------|--------------------------------|
http://classicalguitartablature.blogspot.com/
E|--------------------------------|--------------------------------|
B|--------------------------------|-- 2-- 2-- 2-- 2---------- 2-- 3|
G|-------- 2------------ 2--------|-- 2-- 2-- 2-- 2---- 2-------- 5|
D|---- 2------ 2------ 2---- 2----|-- 2-- 2-- 2-- 2----------------|
A|-------------- 0----------------| 0------------ 0-------------- 5|
E|--------------------------------|--------------------------------|
http://classicalguitartablature.blogspot.com/
E|--------------------------------|--------------------------------|
B|--------------------------------|--------------------------------|
G|------ 5---------------- 2------|------ 7-------------- 5--------|
D|---- 4------ 4------ 4---- 4----|---- 5---- 5------ 4-------- 4--|
A|---------------- 3--------------|--------------------------------|
E|--------------------------------| 6-------------- 5--------------|
http://classicalguitartablature.blogspot.com/
E|--------10-------------------- 8|--------------------------------|
B|--------11------------13--11-- 8|------------ 8------------------|
G|----------------------10--10-- 8|------ 8-------------- 8--------|
D|1212------12------12--12--12----|---- 8------------ 8-------- 8--|
A|10------------10----------------|--------------------------------|
E|------------------------------ 8|---------------- 8--------------|
http://classicalguitartablature.blogspot.com/
E|-------- 8------------ 6-- 5-- 3|--------------------------------|
B|---- 7---------------- 7-- 7-- 3|--------------------------------|
G| 7---------- 7------ 7-------- 3|-------- 3-------------- 3------|
D|--------------------------------|---- 3------ 3------ 3---- 3----|
A| 5-------------- 5--------------|--------------------------------|
E|------------------------------ 3|---------------- 3--------------|
http://classicalguitartablature.blogspot.com/
E|--------10--------------------11|--------------------------------|
B|--------11------------13--11-- 8|------------------------------13|
G|----------------------10--10----| 8---- 8-------------- 8--------|
D|1212------12------12--12--12----|---- 8------ 8---- 8-------- 8--|
A|10------------10----------------|--------------------------------|
E|--------------------------------| 8-------------- 8--------------|
http://classicalguitartablature.blogspot.com/
E|------10------------------------| 3------------------------------|
B|------13----------------10------| 3------------------------------|
G|11--------------------------10--| 3---- 3-- 3---------- 3--------|
D|1010------10--------10----------|---- 3-------------- 3---- 3----|
A|--------------------------------|--------------------------------|
E|10--------------10--------------| 3-------------- 3--------------|
http://classicalguitartablature.blogspot.com/
E|--------10-------------------- 8|--------------------------------|
B|--------11------------13--11-- 8|------------ 8------------------|
G|----------------------10--10-- 8|------ 8-------------- 8--------|
D|1212------12------12--12--12----|---- 8------------ 8-------- 8--|
A|10------------10----------------|--------------------------------|
E|------------------------------ 8|---------------- 8--------------|
http://classicalguitartablature.blogspot.com/
E|-------- 8------------ 6-- 5-- 3|--------------------------------|
B|---- 7---------------- 7-- 7-- 3|--------------------------------|
G| 7---------- 7------ 7-------- 3|-------- 3-------------- 3------|
D|--------------------------------|---- 3------ 3------ 3---- 3----|
A| 5-------------- 5--------------|--------------------------------|
E|------------------------------ 3|---------------- 3--------------|
http://classicalguitartablature.blogspot.com/
E|--------10--------------------11|--------------------------------|
B|--------11------------13--11-- 8|------------------------------13|
G|----------------------10--10----| 8---- 8-------------- 8--------|
D|1212------12------12--12--12----|---- 8------ 8---- 8-------- 8--|
A|10------------10----------------|--------------------------------|
E|--------------------------------| 8-------------- 8--------------|
http://classicalguitartablature.blogspot.com/
E|------10------------------------|--------------------------------|
B|------13----------------10------| 8---------------------------- 4|
G|11--------------------------10--| 7------ 7-------------- 7------|
D|1010------10--------10----------|---- 8------ 8------ 8------ 8--|
A|--------------------------------| 6-------------- 5--------------|
E|10--------------10--------------|--------------------------------|
http://classicalguitartablature.blogspot.com/
E|--------------------------------|--------------------------------|
B|--------------------------------|--------------------------------|
G| 3-------------- 5--------------| 0------------------------------|
D|---- 5------ 5------ 5---- 4----| 0------------------------------|
A| 3------------------------------|--------------------------------|
E|-------- 6------ 5------ 4---- 3|--------------------------------|

0 ความคิดเห็น:

แสดงความคิดเห็น