To celebrate the anniversary, I am giving you (finally...) : iPhone LickByNeck !!!!!!

Fantasy

Groovy Eartch,Wind And Fire's tune fingerstyle solo guitar arrangement played in the key of Em.

http://classicalguitartablature.blogspot.com/
Fantasy (Earth Wind and Fire) played in the key of Em.
Classical Guitar Tablature http://classicalguitartablature.blogspot.com/
E| 0-------- 0--------------------| 0-------- 0--------------------|
B|------ 0------ 3------ 5-- 3----| 1------ 1------ 3------ 1-- 0--|
G|---- 0---------------- 2-- 2----|---- 0--------------------------|
D|------------------ 4-- 4-- 4----|-------------------- 0----------|
A|-------------- 2----------------| 3------------------------------|
E| 0------------------------------|---------------- 3--------------|
Classical Guitar Tablature http://classicalguitartablature.blogspot.com/
E|--------------------------------|--------------------------------|
B| 2-- 2 0---- 2 4-- 4---- 2 4----| 5---------- 5-- 5------------ 5|
G| 2-- 2-- 2-- 2 4-- 4---- 4 4----| 7------ 7------ 7------------ 7|
D| 2-- 2-- 2-- 2 4---- 4-- 4 4----| 7-- 7---------- 6------------ 5|
A| 0------------ 2----------------| 7---------------------------- 7|
E|--------------------------------|---------------- 0--------------|
Classical Guitar Tablature http://classicalguitartablature.blogspot.com/
E|--------------------------------|--------------------------------|
B|-------- 5------ 5------ 5-- 5--|-------- 5------ 5------ 5-- 5--|
G|-------- 7------ 7------ 7-- 7--|-------- 7------ 7------ 7-- 7--|
D|-------- 5-------------- 5-- 5--|-------- 5------ 5------ 5-- 5--|
A|-- 5------------ 5---------- 7--|-- 5------------ 5---------- 7--|
E|---- 7 7---- 5 7-- 7 5 7--------|---- 7 7---- 5 7-- 7 5 7--------|
Classical Guitar Tablature http://classicalguitartablature.blogspot.com/
E|--------------------------------|--------------------------------|
B|-------- 5------ 5------ 5-- 5--|-------- 5-------------- 5 7 8--|
G|-------- 7------ 7------ 7-- 7--|-------- 7----------------------|
D|-------- 5------ 5------ 5-- 5--|-------- 5----------------------|
A|-- 5------------ 5---------- 7--|-- 5------------ 5--------------|
E|---- 7 7---- 5 7-- 7 5 7--------|-- 7 5-- 7-- 5 7-- 7 5 7------ 5|
Classical Guitar Tablature http://classicalguitartablature.blogspot.com/
E|------ 5------------------------|--------------------------------|
B| 8-- 8 5-- 8 7------------ 7 8--| 8-- 810---- 7-- 7-------- 7 8--|
G| 5-- 5 5---- 7-- 7-- 7-- 9-- 9--| 9-- 9 9-- 9 7-- 7-- 7---- 9 9--|
D| 5-- 5------ 7-- 7-- 7------10--|10----10--10 7-- 7-- 7------10--|
A|--------------------------------|--------------------------------|
E|---- 5 5------ 7------ 7------ 8|------ 8------10--------10---- 8|
Classical Guitar Tablature http://classicalguitartablature.blogspot.com/
E|--------------------------------|--------------------------------|
B|-- 8 810-- 8 7-- 7------------ 5| 5-- 5-------------- 5-- 5 7 8--|
G|-- 9-- 9-- 9 7---- 7 7 9-- 7-- 7|-- 7---- 7----------------------|
D|10--1010---- 7---- 7 7 7-- 7-- 7|---------------- 6--------------|
A|------------------------------ 7|--------------------------------|
E|------ 8------10------10--------|-------------- 0-------------- 5|
Classical Guitar Tablature http://classicalguitartablature.blogspot.com/
E|------ 5------------------------|--------------------------------|
B| 8-- 8 5-- 8 7------------ 7 8--| 8-- 810---- 7-- 7-------- 7 8--|
G| 5-- 5 5---- 7-- 7-- 7-- 9-- 9--| 9-- 9 9-- 9 7-- 7-- 7-- 9------|
D| 5-- 5------ 7-- 7-- 7------10--|10----10--10 7-- 7-- 7------10--|
A|--------------------------------|--------------------------------|
E|---- 5 5------ 7------ 7------ 8|------ 8------10--------10---- 8|
Classical Guitar Tablature http://classicalguitartablature.blogspot.com/
E|------------------------------ 7| 7-- 7---- 7--------------------|
B| 8-- 8------10----1010-- 7----10|101010----10------------10---- 8|
G| 9---- 9---- 7---- 7 7---- 7-- 9|-- 9-------------- 9------ 8-- 5|
D|10--------10 7-------- 7--------|-- 7-------------------- 7---- 5|
A|--------------------------------|------------------------------ 7|
E|------ 8------10------1010---- 7|------ 7-------- 7------ 7------|
Classical Guitar Tablature http://classicalguitartablature.blogspot.com/
E|------------------------------ 7|---- 7--------------------------|
B|---- 5--------10---- 7--------10|--1010------10----------10---- 8|
G|---- 5---- 5-- 7---- 7---- 7-- 9|-- 9------ 9------ 9---- 7---- 5|
D|-------------- 7-- 7------------|------------------------------ 5|
A|---------------- 9------------10|--------------10-------- 9---- 7|
E|---- 8-- 8----------1010--------|--------10------------10--------|
Classical Guitar Tablature http://classicalguitartablature.blogspot.com/
E|------------------------------ 7|---- 7--------------------------|
B|---- 5--------10---- 7--------10|--1010----10--10--------10-- 5 8|
G|---- 5---- 5-- 7---- 7---- 7-- 9|---- 9---- 9-- 8-------- 8---- 7|
D|-------------- 7-- 7------------|-------- 7-- 7 7-------- 7---- 5|
A|---------------- 9--------------|--------------------------------|
E|---- 8-- 8----------1010------ 7|-------- 7------ 7--------------|
Classical Guitar Tablature http://classicalguitartablature.blogspot.com/
E|--------------------------------|------------ 3-- 5--------------|
B|-- 8------ 5 7 8-- 8------ 5 7 8|-- 8---- 8-- 3-- 3 7---------- 7|
G|-- 7------ 7 7-- 5 5------ 5-- 5|-- 5---- 5-- 4-- 4 4---- 4-- 7 9|
D|---------- 5---- 5------ 5---- 7|---- 7-- 7-------- 4-- 4------ 7|
A| 7-- 7---------------- 7------ 5|-------------------- 5----------|
E|------ 7-------- 5-- 5----------|------ 5------ 3----------------|
Classical Guitar Tablature http://classicalguitartablature.blogspot.com/
E|--------------------------------|--------------------------------|
B|---- 7-- 7-- 7-- 8------------ 5|---- 5-------- 5---- 5-- 5------|
G|---- 7-- 7-- 9---- 9------ 5 7 5|---- 5-- 5-- 7 6---- 6-- 6-- 9--|
D|---- 7-- 7-- 9---------------- 5|---- 5-------- 5---- 5-- 5-- 7--|
A|--------------------------------|--------------------------------|
E| 7------------ 8------ 8------ 5|------ 5------ 6------ 6------ 7|
Classical Guitar Tablature http://classicalguitartablature.blogspot.com/
E|---------------- 0---- 2--------|--------------------------------|
B| 7-------------- 1------ 0---- 8|-- 8------ 5 7 8-- 8------ 5 7 8|
G| 8 8------ 8---- 2------ 2---- 7|-- 7------ 7 7-- 5 5------ 5-- 5|
D| 7 7------ 7------------------ 5|---------- 5---- 5------ 5---- 7|
A|------------------------ 2------| 7-- 7---------------- 7------ 5|
E|------ 7-------- 2--------------|------ 7-------- 5-- 5----------|
Classical Guitar Tablature http://classicalguitartablature.blogspot.com/
E|------------ 3-- 5--------------|--------------------------------|
B|-- 8---- 8-- 3-- 3 7---------- 7|---- 7-- 7-- 7-- 8------------ 5|
G|-- 5---- 5-- 4-- 4 4---- 4-- 7 9|---- 7-- 7-- 9---- 9------ 5 7 5|
D|---- 7-- 7-------- 4-- 4------ 7|---- 7-- 7-- 9---------------- 5|
A|-------------------- 5----------|--------------------------------|
E|------ 5------ 3----------------| 7------------ 8------ 8------ 5|
Classical Guitar Tablature http://classicalguitartablature.blogspot.com/
E|--------------------------------|------------------------------ 6|
B|---- 5-------- 5---- 5-- 5------|--------------12------12------ 7|
G|---- 5-- 5-- 7 6---- 6-- 6-- 9--|-- 8---------- 9------ 9------ 6|
D|---- 5-------- 5---- 5-- 5-- 9--|-- 9------ 9--11------11--------|
A|--------------------------------|---------------- 9-- 9-- 9 9-- 7|
E|------ 5------ 6------ 6------ 7|------ 7------------------------|
Classical Guitar Tablature http://classicalguitartablature.blogspot.com/
E|------ 6------ 5------ 5--------|-------------- 3------ 5------ 6|
B|------ 7------ 7-- 7-- 7---- 7 7|------ 8------ 4------ 7-- 7-- 3|
G|------ 6------ 5-- 5-- 5---- 5 7|------ 7------ 5-- 5------ 5-- 3|
D|------------------ 7-------- 7 7|------ 5------------------ 7----|
A|---- 7-- 7-- 7 5------ 5--------|---------------------- 5--------|
E|--------------------------------| 8 8-- 6-- 6---- 5------------ 3|
Classical Guitar Tablature http://classicalguitartablature.blogspot.com/
E|---- 6---- 3 5 6---- 6----------|------------ 6-- 8------------ 5|
B|---- 3---- 3-- 4---- 4---- 81011|--------11-- 6-- 610------ 6 8 6|
G|-------- 3---- 3---- 3------ 8 8|---- 8-- 8-- 7-- 7------ 7---- 5|
D|----------------------------1010|----10--10-------- 7-- 7--------|
A|-------------- 3------ 3------ 8|------ 8------------ 8-------- 5|
E|------ 3------------------------|-------------- 6----------------|
Classical Guitar Tablature http://classicalguitartablature.blogspot.com/
E|---- 5------ 5-- 6------------ 3|---- 3-------- 3---- 3----------|
B|---- 6------ 8-- 8 8------ 4 6 4|---- 4---- 4 6 5---- 5-- 5-- 8--|
G|---- 5------ 7---------------- 3|---- 3-------- 3---- 3-- 3-- 5--|
D|--------------------------------|---------------------------- 7--|
A|------ 5------ 6------ 6------ 3|------ 3------ 4------ 4------ 5|
E|--------------------------------|--------------------------------|
Classical Guitar Tablature http://classicalguitartablature.blogspot.com/
E|--------------------------------|-------------- 3-------- 5---- 6|
B| 7---------------- 7------ 7-- 8|---- 8---- 8-- 4------ 7------ 3|
G| 5 7------ 7------ 7------ 7-- 7|---- 7---- 7---- 5------ 5---- 3|
D|-- 7------ 7------ 7------ 7----|---- 5---- 5--------------------|
A|------ 5------------------------|------------------------ 5------|
E|-------------- 8-------- 8------| 6------ 6------ 5------------ 3|
Classical Guitar Tablature http://classicalguitartablature.blogspot.com/
E|---- 6---- 3 5 6---- 6----------|------------ 6-- 8------------ 5|
B|---- 3---- 3-- 4---- 4---- 81011|--------11-- 6-- 610------ 6 8 6|
G|-------- 3---- 3---- 3------ 8 8|---- 8-- 8-- 7-- 7------ 7---- 5|
D|----------------------------1010|----10--10-------- 7-- 7--------|
A|-------------- 3------ 3------ 8|------ 8------------ 8-------- 5|
E|------ 3------------------------|-------------- 6----------------|
Classical Guitar Tablature http://classicalguitartablature.blogspot.com/
E|---- 5------ 5-- 6------------ 3|---- 3-------- 3---- 3----------|
B|---- 6------ 8-- 8 8------ 4 6 4|---- 4---- 4 6 5---- 5-- 5-- 8--|
G|---- 5------ 7---------------- 3|---- 3-------- 3---- 3-- 3-- 5--|
D|--------------------------------|---------------------------- 7--|
A|------ 5------ 6------ 6------ 3|------ 3------ 4------ 4------ 5|
E|--------------------------------|--------------------------------|
Classical Guitar Tablature http://classicalguitartablature.blogspot.com/
E|--------------------------------|-------------- 3-------- 5------|
B| 7---------------- 7------ 7-- 8|---- 8---- 8-- 4------ 7------ 8|
G| 5 7------ 7------ 7------ 7-- 7|---- 7---- 7---- 5------ 5----10|
D|-- 7------ 7------ 7------ 7----|---- 5---- 5------------------ 8|
A|------ 5------------------------|------------------------ 5----10|
E|-------------- 8-------- 8------| 6------ 6------ 5--------------|
Classical Guitar Tablature http://classicalguitartablature.blogspot.com/
E|--------------------------------|---------------------------- 3--|
B|-------- 8------ 8------ 8-- 8--|-------- 8------ 8------ 8-- 3--|
G|----------10----10----------10--|--------10------10------10-- 3--|
D|---------- 8------------ 8-- 8--|-------- 8------ 8------ 8------|
A|-- 8------------ 8----------10--| 8-------------- 8--------------|
E|----10 810-- 810--10 810--------|--10 810---- 810--10 810---- 3--|

0 ความคิดเห็น:

แสดงความคิดเห็น