To celebrate the anniversary, I am giving you (finally...) : iPhone LickByNeck !!!!!!

The Flintstones Theme

The Flintstones theme song fingerstyle solo guitar arrangement played in the key of C.

The Flintstones played in the key of C.
Classical Guitar Tablature http://classicalguitartablature.blogspot.com/
E|------------ 3------------------|--------------------------------|
B| 5-- 5-- 6-------------- 3------|---- 5 6---- 8---------- 3------|
G| 5-- 5-- 5------ 5------ 5------|-- 7-- 7---- 7 5-------- 5------|
D| 5-- 5-- 3---------- 3------ 6--|---- 7 6---- 6------ 5------ 3--|
A|--------------------------------|--------------------------------|
E| 3------ 4------ 5------ 6------| 7------ 6------ 5------ 4------|
Classical Guitar Tablature http://classicalguitartablature.blogspot.com/
E|---- 0 1---- 3-- 8------10------| 8------------------------------|
B|---- 1 3---- 3-- 6------11------| 8------ 5---- 4-------- 5------|
G|---- 2-- 1-- 1------ 6------10--| 7------ 5------ 5------ 4------|
D|--------------------------------|---- 7------ 5------ 5------ 3--|
A|---------------- 6--------------|--------------------------------|
E| 2------ 1-------------- 9------| 8------ 6------ 4------ 3------|
Classical Guitar Tablature http://classicalguitartablature.blogspot.com/
E|-------------------- 8----------|--------------------------------|
B| 8-------------- 6-- 6------10--| 8-------------- 6-- 8------ 6--|
G| 7------ 5------ 5-- 5------ 7--| 7------ 5------ 5-- 7-- 7-- 5--|
D| 7------ 5------ 7---------- 9--| 5------ 5------ 7-- 7-- 5-- 3--|
A|------------ 6-- 5---------- 8--| 7---------- 6-- 5--------------|
E| 8---- 6 5---------- 4-- 3------|---- 6-- 5---------- 8-- 7-- 5--|
Classical Guitar Tablature http://classicalguitartablature.blogspot.com/
E|------------ 3------------------|--------------------------------|
B| 5-- 5-- 6-- 4-- 1------ 3------| 5------------------------------|
G| 3-- 4-- 3-- 3-- 2------ 3------| 7---------- 6-- 5---------- 5--|
D| 3-- 3-- 5------ 3------ 3------|---- 5------ 5------ 3------ 3--|
A|---- 4-- 3-------------- 5-- 3--|--------------------------------|
E| 3---------- 2-- 1-- 0----------| 7------ 6------ 5------ 4------|
Classical Guitar Tablature http://classicalguitartablature.blogspot.com/
E| 3------------------ 8----------|-------------------- 3------ 1--|
B| 5---- 1------------ 9------10--| 8------------------ 5------ 3--|
G| 5------ 2---------- 7------ 7--| 6------ 5---------- 3------ 2--|
D|---- 5------ 2-------------- 7--|---- 8---- 4--------------------|
A|---------------- 8------ 7------| 6------ 5---- 4------ 3--------|
E| 3------ 2----------------------|--------------------------------|
Classical Guitar Tablature http://classicalguitartablature.blogspot.com/
E|--------------------------------|--------------------------------|
B| 5-- 5 6---- 8-------- 3--------| 1---------- 1------------------|
G| 7-- 7 7---- 7 5-------- 4------| 2---------- 1--10---------- 9--|
D| 5-- 5 6---- 6---- 3-------- 3--|---- 2------ 0------ 9------ 7--|
A|--------------------------------|--------------------------------|
E| 7---- 6-------- 5------ 4---- 2|------ 1--------10------ 8---- 7|
Classical Guitar Tablature http://classicalguitartablature.blogspot.com/
E| 7------------------ 8----------| 7------------------------------|
B| 6------------------ 9--13--12--| 8--10--10--12--10--------------|
G|---- 7-- 9---------- 9--11--11--| 7-- 7--11--11-- 9---------- 7--|
D|------------ 7----------10--10--|---- 9--10--10------ 7------ 5--|
A|--------------------------------| 7------------------------------|
E|-------- 8------10------11------|--------11------ 9------ 7------|
Classical Guitar Tablature http://classicalguitartablature.blogspot.com/
E| 5------------------ 7----------| 5------------------------------|
B| 5------------------ 7------10--| 6-- 8-- 8--10-- 8---- 8---- 8 8|
G|------------ 7------ 7------ 9--| 5-- 5-- 9-- 9-- 8---- 7---- 7 5|
D|---- 5------ 5-------------- 7--|---- 7-- 8-- 8------ 7 7---- 6--|
A|--------------------------------| 5------------------------------|
E| 5------ 7------ 8------ 9------|-------- 9------ 8---- 7---- 6 5|
Classical Guitar Tablature http://classicalguitartablature.blogspot.com/
E|------------------ 8------------|--------------------------------|
B|------------------10------10-- 8|------------------ 8-------- 6--|
G|------ 5---------- 9-------- 9 8|------ 5------ 7---- 7 6---- 5--|
D|---- 5------ 3--------------10 6|------ 3------ 5---- 6 5---- 4--|
A|--------------10------ 9------ 8|---- 6 5---- 3------------------|
E|------ 4------------------------|-------------- 7---- 6-- 5-- 4--|
Classical Guitar Tablature http://classicalguitartablature.blogspot.com/
E|------------ 3------------------|--------------------------------|
B| 5-- 5-- 6-------------- 3------|---- 5 6---- 8---------- 3------|
G| 5-- 5-- 5------ 5------ 5------|-- 7-- 7---- 7 5-------- 5------|
D| 5-- 5-- 3---------- 3------ 6--|---- 7 6---- 6------ 5------ 3--|
A|--------------------------------|--------------------------------|
E| 3------ 4------ 5------ 6------| 7------ 6------ 5------ 4------|
Classical Guitar Tablature http://classicalguitartablature.blogspot.com/
E|---- 0 1---- 3-- 8------10------| 8------------------------------|
B|---- 1 3---- 3-- 6------11------| 8------ 5---- 4-------- 5------|
G|---- 2-- 1-- 1------ 6------10--| 7------ 5------ 5------ 4------|
D|--------------------------------|---- 7------ 5------ 5------ 3--|
A|---------------- 6--------------|--------------------------------|
E| 2------ 1-------------- 9------| 8------ 6------ 4------ 3------|
Classical Guitar Tablature http://classicalguitartablature.blogspot.com/
E|--------------------------------| 8---------- 8-- 7--------------|
B| 8---------- 5-- 3-- 1----------| 8---------- 8-- 6--10----------|
G| 7---------- 7-- 3-- 3------ 3--| 7---------- 7-- 7--10----------|
D|---- 7------ 5-- 3-- 2------ 2--|--------------------10----------|
A|--------------------------------| 8------ 7------ 5--------------|
E| 8------ 6------ 3------ 2------|-------------------------- 8----|
Classical Guitar Tablature http://classicalguitartablature.blogspot.com/
E|--------------------------------| 3---- 3------------------------|
B| 8------------------------------| 3-- 3-------------- 6----------|
G| 7---------- 7------ 5----------| 1-- 1------ 1------ 5----------|
D| 5---------- 5------ 5----------|-------------------- 5----------|
A|--------------------------------|---------------- 5--------------|
E| 7------ 6------ 5------ 3------| 1------ 0-------------- 8------|
Classical Guitar Tablature http://classicalguitartablature.blogspot.com/
E|------------------------------ 8|--------------10-------------- 8|
B|---- 5---------- 6---- 8------ 6|--------------10--------------10|
G|---- 7---------- 7---- 6------ 5|--------------10-------------- 9|
D|---- 7---------- 6---- 5------ 4|--------------10----------------|
A|--------------------------------|----------------------10------ 9|
E| 7-------------- 6------ 5------|------ 4------------------------|
Classical Guitar Tablature http://classicalguitartablature.blogspot.com/
E|------ 8------ 8------ 8------ 8|------ 8------ 8----------------|
B|------ 9------ 8------ 6------ 6|------ 6------10----------------|
G|------ 7------ 7------ 6------ 5|------ 5------10------ 5--------|
D|--------------------------------|------------------------ 3------|
A|------ 8------ 7------ 6------ 5|-------- 4----------------------|
E|--------------------------------|---------------- 8 7---- 5 4----|
Classical Guitar Tablature http://classicalguitartablature.blogspot.com/
E|------------ 3------------------|--------------------------------|
B| 5-- 5-- 6-------------- 3------|---- 5 6---- 8---------- 3------|
G| 5-- 5-- 5------ 5------ 5------|-- 7-- 7---- 7 5-------- 5------|
D| 5-- 5-- 3---------- 3------ 6--|---- 7 6---- 6------ 5------ 3--|
A|--------------------------------|--------------------------------|
E| 3------ 4------ 5------ 6------| 7------ 6------ 5------ 4------|
Classical Guitar Tablature http://classicalguitartablature.blogspot.com/
E|---- 0 1---- 3-- 8------10------| 8---------------------------- 3|
B|---- 1 3---- 3-- 6------11------| 8------ 5---- 4-------- 5---- 3|
G|---- 2-- 1-- 1------ 6------10--| 7------ 5------ 5------ 4---- 1|
D|--------------------------------|---- 7------ 5------ 5------ 3--|
A|---------------- 6--------------|--------------------------------|
E| 2------ 1-------------- 9------| 8------ 6------ 4------ 3------|
Classical Guitar Tablature http://classicalguitartablature.blogspot.com/
E|-------------------- 8------ 5 3|--------------------------------|
B|--------------------10------ 8 6|-------- 1----------------------|
G|------ 5------------ 9 7---- 7 5|-------- 0----------------------|
D|-------- 7------------ 5--------|-------- 2----------------------|
A|-------- 6 5--------------------|--------------------------------|
E| 1-- 0---------- 9-- 8 7---- 6--| 5-- 4-- 3----------------------|
Classical Guitar Tablature http://classicalguitartablature.blogspot.com/

0 ความคิดเห็น:

แสดงความคิดเห็น