To celebrate the anniversary, I am giving you (finally...) : iPhone LickByNeck !!!!!!

Fur Elise (Basic)

Ludwig Van Beethoven's tune chord melody guitar BASIC arrangement played in the key of Am.
http://classicalguitartablature.blogspot.com/

http://classicalguitartablature.blogspot.com/
Fur Elise-Ludwig Van Beethoven-BASIC ARRANGEMENT played in the key of Am
http://classicalguitartablature.blogspot.com/
E|-------------- 0--------| 0---- 0----------------|
B|------------------ 4----|-- 4------ 0-- 3---- 1--|
G|------------------------|------------------------|
D|------------------------|------------------------|
A|------------------------|------------------------|
E|------------------------|------------------------|
http://classicalguitartablature.blogspot.com/
E|------------------------|------------------------|
B|------------------------| 0------------------ 0--|
G| 2------ 2---------- 2--|-------- 1------ 1------|
D|---- 2---------- 2------|---- 2------ 2----------|
A| 0---------- 3----------|------------------------|
E|------------------------| 0----------------------|
http://classicalguitartablature.blogspot.com/
http://classicalguitartablature.blogspot.com/
E|-------------- 0--------| 0---- 0----------------|
B| 1---------------- 4----|-- 4------ 0-- 3---- 1--|
G|-------- 2--------------|------------------------|
D|---- 2------ 2----------|------------------------|
A| 0----------------------|------------------------|
E|------------------------|------------------------|
http://classicalguitartablature.blogspot.com/
E|------------------------|------------------------|
B|------------------------| 0-------------- 1-- 0--|
G| 2------ 2---------- 2--|-------- 1--------------|
D|---- 2---------- 2------|---- 2------ 2----------|
A| 0---------- 3----------|------------------------|
E|------------------------| 0----------------------|
http://classicalguitartablature.blogspot.com/
E|---------------- 0------| 0---- 0----------------|
B|-------------------- 4--|-- 4-------- 0-- 3-- 1--|
G| 2------ 2--------------|------------------------|
D|---- 2------------------|------------------------|
A| 0----------------------|------------------------|
E|------------------------|------------------------|
http://classicalguitartablature.blogspot.com/
E|------------------------|------------------------|
B|------------------------| 0------------------ 0--|
G| 2------ 2---------- 2--|-------- 1------ 1------|
D|---- 2---------- 2------|---- 2------ 2----------|
A| 0---------- 3----------|------------------------|
E|------------------------| 0----------------------|
http://classicalguitartablature.blogspot.com/
E|-------------- 0--------| 0---- 0----------------|
B| 1---------------- 4----|-- 4------ 0-- 3---- 1--|
G|-------- 2--------------|------------------------|
D|---- 2------ 2----------|------------------------|
A| 0----------------------|------------------------|
E|------------------------|------------------------|
http://classicalguitartablature.blogspot.com/
E|------------------------|------------------------|
B|------------------------| 0-------------- 1-- 0--|
G| 2------ 2---------- 2--|-------- 1--------------|
D|---- 2---------- 2------|---- 2------ 2----------|
A| 0---------- 3----------|------------------------|
E|------------------------| 0----------------------|
http://classicalguitartablature.blogspot.com/
E|------------------------| 0-------------- 1 0----|
B|------------ 0-- 1-- 3--|-------- 1--------------|
G| 2------ 2--------------|---- 0------ 0----------|
D|---- 2------------------|------------------------|
A| 0----------------------| 3----------------------|
E|------------------------|------------------------|
http://classicalguitartablature.blogspot.com/
E|-------------- 0--------|------------------------|
B| 3------ 3---------- 3--| 1-------------- 3-- 1--|
G|---- 0------------------|-------- 2--------------|
D|------------ 3----------|---- 2------ 2----------|
A|------------------------| 0----------------------|
E| 3----------------------|------------------------|
http://classicalguitartablature.blogspot.com/
E|-------------- 0------ 0|-- 0----12---- 0------ 0|
B| 0----------------------|------------ 4------ 4--|
G|------------------------|------------------------|
D|-------- 2-- 2---- 2----|------------------------|
A|------------------------|------------------------|
E| 0-- 0------------------|------------------------|
http://classicalguitartablature.blogspot.com/
E|------ 0------ 0--------| 0---- 0----------------|
B|-- 4------ 4------ 4----|-- 4------ 0-- 3---- 1--|
G|------------------------|------------------------|
D|------------------------|------------------------|
A|------------------------|------------------------|
E|------------------------|------------------------|
http://classicalguitartablature.blogspot.com/
E|------------------------|------------------------|
B|------------------------| 0------------------ 0--|
G| 2------ 2---------- 2--|-------- 1------ 1------|
D|---- 2---------- 2------|---- 2------ 2----------|
A| 0---------- 3----------|------------------------|
E|------------------------| 0----------------------|
http://classicalguitartablature.blogspot.com/
E|-------------- 0--------| 0---- 0----------------|
B| 1---------------- 4----|-- 4------ 0-- 3---- 1--|
G|-------- 2--------------|------------------------|
D|---- 2------ 2----------|------------------------|
A| 0----------------------|------------------------|
E|------------------------|------------------------|
http://classicalguitartablature.blogspot.com/
E|------------------------|------------------------|
B|------------------------| 0-------------- 1-- 0--|
G| 2------ 2---------- 2--|-------- 1--------------|
D|---- 2---------- 2------|---- 2------ 2----------|
A| 0---------- 3----------|------------------------|
E|------------------------| 0----------------------|
http://classicalguitartablature.blogspot.com/
E|------------------------| 0-------------- 1 0----|
B|------------ 0-- 1-- 3--|-------- 1--------------|
G| 2------ 2--------------|---- 0------ 0----------|
D|---- 2------------------|------------------------|
A| 0----------------------| 3----------------------|
E|------------------------|------------------------|
http://classicalguitartablature.blogspot.com/
E|-------------- 0--------|------------------------|
B| 3------ 3---------- 3--| 1-------------- 3-- 1--|
G|---- 0------------------|-------- 2--------------|
D|------------ 3----------|---- 2------ 2----------|
A|------------------------| 0----------------------|
E| 3----------------------|------------------------|
http://classicalguitartablature.blogspot.com/
E|-------------- 0------ 0|-- 0----12---- 0------ 0|
B| 0----------------------|------------ 4------ 4--|
G|------------------------|------------------------|
D|-------- 2-- 2---- 2----|------------------------|
A|------------------------|------------------------|
E| 0-- 0------------------|------------------------|
http://classicalguitartablature.blogspot.com/
E|------ 0------ 0--------| 0---- 0----------------|
B|-- 4------ 4------ 4----|-- 4------ 0-- 3---- 1--|
G|------------------------|------------------------|
D|------------------------|------------------------|
A|------------------------|------------------------|
E|------------------------|------------------------|
http://classicalguitartablature.blogspot.com/
E|------------------------|------------------------|
B|------------------------| 0------------------ 0--|
G| 2------ 2---------- 2--|-------- 1------ 1------|
D|---- 2---------- 2------|---- 2------ 2----------|
A| 0---------- 3----------|------------------------|
E|------------------------| 0----------------------|
http://classicalguitartablature.blogspot.com/
E|-------------- 0--------| 0---- 0----------------|
B| 1---------------- 4----|-- 4------ 0-- 3---- 1--|
G|-------- 2--------------|------------------------|
D|---- 2------ 2----------|------------------------|
A| 0----------------------|------------------------|
E|------------------------|------------------------|
http://classicalguitartablature.blogspot.com/
E|------------------------|------------------------|
B|------------------------| 0-------------- 1-- 0--|
G| 2------ 2---------- 2--|-------- 1--------------|
D|---- 2---------- 2------|---- 2------ 2----------|
A| 0---------- 3----------|------------------------|
E|------------------------| 0----------------------|
http://classicalguitartablature.blogspot.com/
E|------------------------|-------------- 1-- 0-- 0|
B|------------ 1-- 1-- 1--| 1------ 1--------------|
G| 2------ 2--------------|---- 2---- 2---- 2------|
D|---- 2------ 2-- 3-- 2--|------------------------|
A| 0---------- 3-- 0------|------------------------|
E|-------------------- 3--| 1-------------------- 1|
http://classicalguitartablature.blogspot.com/
E|-------------- 6---- 5 5|-- 3--------------------|
B|------ 3------ 3--------|-------- 6-- 5-- 3-- 1--|
G|-- 3------ 3------ 3----|-------------------- 0--|
D|-------------- 3------ 3|---- 2-- 5-- 5-- 3-- 2--|
A|------------------------|-------- 3-- 3-- 5------|
E|------------------------|------------------------|
http://classicalguitartablature.blogspot.com/
E|------------------------|------------------------|
B|------------------------| 1------ 1------ 3-- 4--|
G| 3------ 2---- 3 2 0 2--|---- 2------ 2------ 2--|
D|---- 3------ 3----------|------------------------|
A|------------------------|------------------------|
E| 1----------------------| 1----------------------|
http://classicalguitartablature.blogspot.com/
E| 0---------- 0-- 1------|------------------------|
B|-------- 1--------------| 1---- 3 1 0 1 3-- 0----|
G|---- 2-------------- 2--| 0------ 0 0-- 0--------|
D|---------------- 0------|---- 2---------- 3------|
A|------------------------|------------------------|
E| 0----------------------| 3------------ 3--------|
http://classicalguitartablature.blogspot.com/
E|---- 3-- 3---- 3---- 3--|---- 3-- 3-------- 3-- 8|
B| 1---------------- 0----| 1---- 3------ 5--------|
G| 0---- 0-- 2------ 0----| 0------------ 5--------|
D| 2---------------- 3----| 2---- 3----------------|
A| 3----------------------|-------------- 3--------|
E|------------------------|------------------------|
http://classicalguitartablature.blogspot.com/
E| 7 5-- 3---------- 3----| 1-------- 3---- 3-- 3--|
B|-------- 6 5-- 3--------|-- 3-- 1----------------|
G|-- 5---------- 0--------|------ 0---- 0---- 2----|
D|-- 3--------------------|------ 2----------------|
A|------------------------|-------- 3--------------|
E|-------------- 3--------|------------------------|
http://classicalguitartablature.blogspot.com/
E|---- 3---- 3---- 3------|-- 3-- 8 7 5-- 3--------|
B| 0------ 1---- 3---- 5--|---------------- 6 5-- 3|
G| 0------ 0---------- 5--|---------- 5---------- 0|
D| 3------ 2---- 3--------|---------- 3------------|
A|-------------------- 3--|------------------------|
E|------------------------|---------------------- 3|
http://classicalguitartablature.blogspot.com/
E|-- 3-- 1----------------|------------------------|
B|---------- 3---- 5-- 6 5| 4-- 5-- 0-- 5-- 4-- 5--|
G|------------------------|------------------------|
D|---------------- 6------|------------------------|
A|------------------------|------------------------|
E|---------------- 0------|------------------------|
http://classicalguitartablature.blogspot.com/
E|------------------------|------------------------|
B|-- 0-- 5---- 4------ 5--|------------------ 0----|
G|------------------------|------------------------|
D|------------------------|------------------------|
A|------------------------|------------------------|
E|------------------------|------------------------|
http://classicalguitartablature.blogspot.com/
E|------------------------|-------------- 0--------|
B| 5---- 4---- 5----------|---------- 0------ 4----|
G|------------------------|------------------------|
D|------------------------|------------------------|
A|------------------------|------------------------|
E|------------------------|------------------------|
http://classicalguitartablature.blogspot.com/
E| 0---- 0----------------|------------------------|
B|-- 4------ 0-- 3---- 1--|------------------------|
G|------------------------| 2------ 2---------- 2--|
D|------------------------|---- 2---------- 2------|
A|------------------------| 0---------- 3----------|
E|------------------------|------------------------|
http://classicalguitartablature.blogspot.com/
E|------------------------|-------------- 0--------|
B| 0------------------ 0--| 1---------------- 4----|
G|-------- 1------ 1------|-------- 2--------------|
D|---- 2------ 2----------|---- 2------ 2----------|
A|------------------------| 0----------------------|
E| 0----------------------|------------------------|
http://classicalguitartablature.blogspot.com/
E| 0---- 0----------------|------------------------|
B|-- 4------ 0-- 3---- 1--|------------------------|
G|------------------------| 2------ 2---------- 2--|
D|------------------------|---- 2---------- 2------|
A|------------------------| 0---------- 3----------|
E|------------------------|------------------------|
http://classicalguitartablature.blogspot.com/
E|------------------------|------------------------|
B| 0-------------- 1-- 0--|------------------------|
G|-------- 1--------------| 2-------------------- 3|
D|---- 2------ 2----------| 2----------------------|
A|------------------------| 0-- 0-- 0-- 0-- 0-- 0--|
E| 0----------------------|------------------------|
http://classicalguitartablature.blogspot.com/
E|------------------------|---------------- 0-- 1--|
B| 2----------------------| 3-------------- 2 3----|
G|------------------------| 2----------------------|
D| 2----------------------| 3----------------------|
A| 0-- 0-- 0-- 0-- 0-- 0--| 0-- 0-- 0-- 0-- 0-- 0--|
E|------------------------|------------------------|
http://classicalguitartablature.blogspot.com/
E| 1-------------- 1------| 0----------------------|
B| 3-------------- 3------| 1-------------------- 3|
G| 1-------------- 1------| 2----------------------|
D|------------------------|---------------------- 3|
A| 0-- 0-- 0-- 0-- 0-- 0--| 0-- 0-- 0-- 0-- 0-- 0--|
E|------------------------|------------------------|
http://classicalguitartablature.blogspot.com/
E|------------------------|------------------------|
B|------------------------|------------------------|
G|-------------- 5-- 4-- 2|---------------- 2------|
D|-------------- 2-- 0----| 4-------------- 4------|
A| 5 5-- 5-- 5-- 5-- 5----| 6-- 6-- 6-- 6-- 6-- 6--|
E| 5 5-- 5-- 5-- 5---- 5--| 5-- 5-- 5-- 5-- 5-- 5--|
http://classicalguitartablature.blogspot.com/
E|------------------------|------------------------|
B|-------- 1------ 0------|------------------------|
G| 2----------------------| 2-------------------- 3|
D| 4------ 2------ 0------| 2----------------------|
A| 0-- 0-- 0-- 0----------| 0-- 0-- 0-- 0-- 0-- 0--|
E| 0-- 0-- 0-- 0-- 4-- 4--|------------------------|
http://classicalguitartablature.blogspot.com/
E|------------------------|---------------- 0-- 1--|
B| 2----------------------| 3-------------- 2 3----|
G|------------------------| 2----------------------|
D| 2----------------------| 3----------------------|
A| 0-- 0-- 0-- 0-- 0-- 0--| 0-- 0-- 0-- 0-- 0-- 0--|
E|------------------------|------------------------|
http://classicalguitartablature.blogspot.com/
E| 1-------------- 1------| 1----------------------|
B| 3-------------- 3------| 3----------------------|
G| 1-------------- 1------| 1----------------------|
D|------------------------|------------------------|
A| 0-- 0-- 0-- 0-- 0-- 0--| 1-- 1-- 1-- 1-- 1 1----|
E|------------------------|------------------------|
http://classicalguitartablature.blogspot.com/
E|------------------------|------------------------|
B| 4-------------- 3-- 1--|------------------------|
G| 0----------------------| 3-------------- 3-- 2--|
D|---------------- 3-- 1--| 3-------------- 3-- 3--|
A| 1-- 1-- 1-- 1-- 1-- 1--| 1-- 1-- 1-- 1-- 1-- 1--|
E|------------------------|------------------------|
http://classicalguitartablature.blogspot.com/
E|------------------------|------------------------|
B|------------------------| 1----------------------|
G| 1-------------- 1------| 2----------------------|
D| 3-------------- 3---- 2|---------------------- 0|
A| 2-- 2-- 2-- 2-- 2-- 2 3|------------------------|
E|------------------------|---------------------- 0|
http://classicalguitartablature.blogspot.com/
E|------------------------|------------------ 0----|
B| 3----------------------|---------------- 1---- 3|
G| 1----------------------|------------ 2----------|
D|------------------------|---------- 2------------|
A|------------------------|-- 0-- 3----------------|
E|------------------------|------------------------|
http://classicalguitartablature.blogspot.com/
E|-------------------- 8--|12--10-- 8--------1217--|
B|-- 1 0------------10----|--------------13--------|
G|-------------- 9--------|------------14----------|
D|-------- 7--10----------|------------------------|
A|-------- 0--------------|------------ 0----------|
E|------------------------|------------------------|
http://classicalguitartablature.blogspot.com/
E|15--1413--12--1110-- 9--| 8----------------------|
B|------------------------|----12--1110-- 9--------|
G|------------------------|------------------12--11|
D|------------------------|------------------------|
A|------------------------|------------------------|
E|------------------------|------------------------|
http://classicalguitartablature.blogspot.com/
E|------------------------|------------------------|
B|------------------------| 0------ 3---- 1--------|
G|----10-- 9---- 8---- 9--|------------------------|
D|------------------------|------------------------|
A|------------------------|------------------------|
E|------------------------|------------------------|
http://classicalguitartablature.blogspot.com/
E|------------------------|------------------------|
B|------------------------| 0------------------ 0--|
G| 2------ 2---------- 2--|-------- 1------ 1------|
D|---- 2---------- 2------|---- 2------ 2----------|
A| 0---------- 3----------|------------------------|
E|------------------------| 0----------------------|
http://classicalguitartablature.blogspot.com/
E|-------------- 0--------| 0---- 0----------------|
B| 1---------------- 4----|-- 4------ 0-- 3---- 1--|
G|-------- 2--------------|------------------------|
D|---- 2------ 2----------|------------------------|
A| 0----------------------|------------------------|
E|------------------------|------------------------|
http://classicalguitartablature.blogspot.com/
E|------------------------|------------------------|
B|------------------------| 0-------------- 1-- 0--|
G| 2------ 2---------- 2--|-------- 1--------------|
D|---- 2---------- 2------|---- 2------ 2----------|
A| 0---------- 3----------|------------------------|
E|------------------------| 0----------------------|
http://classicalguitartablature.blogspot.com/
E|------------------------| 0-------------- 1 0----|
B|------------ 0-- 1-- 3--|-------- 1--------------|
G| 2------ 2--------------|---- 0------ 0----------|
D|---- 2------------------|------------------------|
A| 0----------------------| 3----------------------|
E|------------------------|------------------------|
http://classicalguitartablature.blogspot.com/
E|-------------- 0--------|------------------------|
B| 3------ 3---------- 3--| 1-------------- 3-- 1--|
G|---- 0------------------|-------- 2--------------|
D|------------ 3----------|---- 2------ 2----------|
A|------------------------| 0----------------------|
E| 3----------------------|------------------------|
http://classicalguitartablature.blogspot.com/
E|-------------- 0------ 0|-- 0----12---- 0------ 0|
B| 0----------------------|------------ 4------ 4--|
G|------------------------|------------------------|
D|-------- 2-- 2---- 2----|------------------------|
A|------------------------|------------------------|
E| 0-- 0------------------|------------------------|
http://classicalguitartablature.blogspot.com/
E|------ 0------ 0--------| 0---- 0----------------|
B|-- 4------ 4------ 4----|-- 4------ 0-- 3---- 1--|
G|------------------------|------------------------|
D|------------------------|------------------------|
A|------------------------|------------------------|
E|------------------------|------------------------|
http://classicalguitartablature.blogspot.com/
E|------------------------|------------------------|
B|------------------------| 0------------------ 0--|
G| 2------ 2---------- 2--|-------- 1------ 1------|
D|---- 2---------- 2------|---- 2------ 2----------|
A| 0---------- 3----------|------------------------|
E|------------------------| 0----------------------|
http://classicalguitartablature.blogspot.com/
E|-------------- 0--------| 0---- 0----------------|
B| 1---------------- 4----|-- 4------ 0-- 3---- 1--|
G|-------- 2--------------|------------------------|
D|---- 2------ 2----------|------------------------|
A| 0----------------------|------------------------|
E|------------------------|------------------------|
http://classicalguitartablature.blogspot.com/
E|------------------------|---------------- 0------|
B|------------------------|---------- 9------------|
G| 2------ 2---------- 2--|------ 7----------------|
D|---- 2---------- 2------| 9----------------------|
A| 0---------- 3----------|------------------------|
E|------------------------| 0----------------------|
http://classicalguitartablature.blogspot.com/
E|------------------ 8----|------------------------|
B|------------------10----|----------------12------|
G|---------------- 9------|-------------- 9--------|
D|------------------------|--------------12--------|
A|---------------- 9------|------------11----------|
E|------------------------|------------------------|
http://classicalguitartablature.blogspot.com/
E|------------------------|-------- 5--------------|
B|------------------------|-------- 6-------- 6----|
G|------------------------|------ 5-------- 5------|
D|------------------------|------------ 5----------|
A|------------------------|------------------------|
E|------------------------|---- 6------------------|
http://classicalguitartablature.blogspot.com/
E|------------------------|------------------------|
B|------------------------|------------------------|
G|------------------------|------------------------|
D|------------------------|------------------------|
A|------------------------|------------------------|
E|------------------------|------------------------|
http://classicalguitartablature.blogspot.com/

0 ความคิดเห็น:

แสดงความคิดเห็น