To celebrate the anniversary, I am giving you (finally...) : iPhone LickByNeck !!!!!!

God Father Theme - Speak Softly Love

Classic hit fingerstyle chord melody guitar arrangement played in the key of Am.

http://classicalguitartablature.blogspot.com/
God Father Theme - Speak Softly Love played in the key of Am.
Classical Guitar Tablature http://classicalguitartablature.blogspot.com/
E|---- 8 8-- 7-- 7------ 7-- 8----|-------------------------- 5----|
B|---- 5 9-- 9--10--10--10---- 6--|--10--10-- 8-- 8-- 6-- 8-- 6----|
G|---- 5 7---- 7 9-- 9-- 9-- 6----|--10-- 9-- 9-- 7-- 7-- 7-- 5----|
D|------------------ 7------------|----10 8-- 8-- 7------ 5--------|
A|---------------------------- 6--|--------------------------------|
E| 5------ 7---- 8-------- 9----10|-------- 9---- 8------ 7---- 5--|
Classical Guitar Tablature http://classicalguitartablature.blogspot.com/
E|--10----10-- 8-- 8-- 7-- 7------| 5---------------------- 5 8----|
B|--12---- 8-- 8--10-- 8-- 6-- 9--| 5------ 5---------- 5-- 6-- 8--|
G|--10---- 9-- 9-- 9-- 8-- 7-- 7--| 5------ 5-- 9------ 7-- 7-- 7--|
D|---------------------------- 6--|-------- 5--10------ 6----------|
A|11----10------ 9---- 8-- 7------|-------- 7--10------------------|
E|---------------------------- 6--| 5-- 8---------- 0------ 7-- 6 5|
Classical Guitar Tablature http://classicalguitartablature.blogspot.com/
E| 7-- 5-- 8------ 7--------------|------------------------ 5-- 8--|
B| 5------10--10-- 8--10-- 6-- 8--| 5---------------------- 7------|
G| 5------ 9-- 9-- 7-- 7-- 7------| 5---------- 7-- 9-- 9-- 5------|
D|------------10------ 9 6--------| 5-- 5------ 6-- 7--------------|
A|--------------------------------|---------------------- 6--------|
E|-------- 8---- 7------ 6--------| 5------ 7------ 8--------------|
Classical Guitar Tablature http://classicalguitartablature.blogspot.com/
E| 7-- 5-- 8------ 7-- 5----------|-------------------------- 5-- 7|
B| 5------10--10-- 5------ 5-- 4--| 3---------------- 3---- 6---- 6|
G| 5------ 9------ 5------ 2-- 4--| 5---------- 2------ 2-- 7------|
D|------------------------ 5-- 5--| 3-- 3------ 5------ 3 7--------|
A| 7----10-------- 0------ 3-- 4--| 5------ 4------ 3--------------|
E|--------------------------------|---------------------- 7--------|
Classical Guitar Tablature http://classicalguitartablature.blogspot.com/
E|--------------------------------|---------------------------- 3--|
B|------------ 6------ 3-- 6-- 9--|10---------------------- 1------|
G| 7-- 7------ 7------ 2-- 7-- 9--| 9------ 5---------- 2-- 2------|
D|-------------------- 0 6---- 9--| 7------ 5---------- 2-- 1---- 6|
A|--------------------------------|--------------------------------|
E| 5------ 4------ 1---- 0----10 8|---- 7-- 5-- 3-- 2------ 1---- 0|
Classical Guitar Tablature http://classicalguitartablature.blogspot.com/
E|--------------------------------|--------------------------------|
B| 6-- 5-- 8------ 6------ 5------|-------- 5----------10--10 9----|
G| 7------10--10-- 9-- 9-- 7------| 2------ 5-- 9--12------ 9-- 7--|
D|------ 9------ 7-------- 7-- 6--| 2------ 5--10--10------ 7-- 6--|
A|------------------------------ 0|---- 3 7--10--12----------------|
E|------10------ 8-------- 7-- 6--|------------------------ 8-- 6--|
Classical Guitar Tablature http://classicalguitartablature.blogspot.com/
E|---------------------- 5--------|---------------------- 3--------|
B| 8-------------- 812---- 8 6----| 5---- 5---------- 5-- 3-- 5----|
G| 7----10--10---- 710---- 5 7----| 5---- 5---------- 5-- 3-- 3----|
D| 5 5------ 9-- 9----12-- 7 5----| 5---- 6---------- 3------ 2-- 0|
A|-------------- 8--10------------|--------------------------------|
E| 7------10-------------- 5 7----| 8 7-- 6---- 5 4------ 3-- 2-- 1|
Classical Guitar Tablature http://classicalguitartablature.blogspot.com/
E|--------------------------------|------------------------ 5 8----|
B| 3---------------------- 6-- 4--| 5------ 3---------- 5-- 6-- 8--|
G| 1-- 1------ 5------ 7-- 5------| 4------ 2---------- 7-- 7-- 7--|
D|------------ 3------ 6 4------ 2|-------- 2---------- 6----------|
A|--------------------------------|--------------------------------|
E|-------- 4------ 8---- 6------ 4|---- 3 2---- 1-- 0------ 7-- 6 5|
Classical Guitar Tablature http://classicalguitartablature.blogspot.com/
E| 7-- 5-- 8------ 7--------------|------------------------ 5-- 8--|
B| 5------10--10-- 8--10-- 6-- 8--| 5---------------------- 7------|
G| 5------ 9-- 9-- 7-- 7-- 7------| 5---------- 7-- 9-- 9-- 5------|
D|------------10------ 9 6--------| 5-- 5------ 6-- 7--------------|
A|--------------------------------|---------------------- 6--------|
E|-------- 8---- 7------ 6--------| 5------ 7------ 8--------------|
Classical Guitar Tablature http://classicalguitartablature.blogspot.com/
E| 7-- 5-- 8------ 7-- 5----------|-------------------------- 5-- 7|
B| 5------10--10-- 5------ 5-- 4--| 3---------------- 3---- 6---- 6|
G| 5------ 9------ 5------ 2-- 4--| 5---------- 2------ 2-- 7------|
D|------------------------ 5-- 5--| 3-- 3------ 5------ 3 7--------|
A| 7----10-------- 0------ 3-- 4--| 5------ 4------ 3--------------|
E|--------------------------------|---------------------- 7--------|
Classical Guitar Tablature http://classicalguitartablature.blogspot.com/
E|--------------------------------|---------------------------- 3--|
B|------------ 6------ 3-- 6-- 9--|10---------------------- 1------|
G| 7-- 7------ 7------ 2-- 7-- 9--| 9------ 5---------- 2-- 2------|
D|-------------------- 0 6---- 9--| 7------ 5---------- 2-- 1---- 6|
A|--------------------------------|--------------------------------|
E| 5------ 4------ 1---- 0----10 8|---- 7-- 5-- 3-- 2------ 1---- 0|
Classical Guitar Tablature http://classicalguitartablature.blogspot.com/
E|--------------------------------|------------------------ 5------|
B| 6-- 5-- 8------ 6------ 5------|-------- 5----------10-- 6-- 9--|
G| 7------10--10-- 9-- 9-- 7------| 2------ 5-- 9--12------ 7-- 7--|
D|------ 9------ 7-------- 7-- 6--| 2------ 5--10--10---------- 6--|
A|------------------------------ 0|---- 3 7--10--12----------------|
E|------10------ 8-------- 7-- 6--|---------------------- 7---- 6--|
Classical Guitar Tablature http://classicalguitartablature.blogspot.com/
E|---- 8 8-- 7-- 7------ 7-- 8----|-------------------------- 5----|
B|---- 5 9-- 9--10--10--10---- 6--|--10--10-- 8-- 8-- 6-- 8-- 6----|
G|---- 5 7---- 7 9-- 9-- 9-- 6----|--10-- 9-- 9-- 7-- 7-- 7-- 5----|
D|------------------ 7------------|----10 8-- 8-- 7------ 5--------|
A|---------------------------- 6--|--------------------------------|
E| 5------ 7---- 8-------- 9----10|-------- 9---- 8------ 7---- 5--|
Classical Guitar Tablature http://classicalguitartablature.blogspot.com/
E|--10----10-- 8-- 8-- 7-- 7------| 5------------------------------|
B|--12---- 8-- 8--10-- 8-- 6-- 9--| 5------ 5------10--------------|
G|--10---- 9-- 9-- 9-- 8-- 7-- 7--| 5------ 5-- 9--11--------------|
D|---------------------------- 6--|-------- 5--10--10--------------|
A|11----10------ 9---- 8-- 7------|-------- 7--10 0----------------|
E|---------------------------- 6--| 5-- 8--------------------------|
Classical Guitar Tablature http://classicalguitartablature.blogspot.com/

0 ความคิดเห็น:

แสดงความคิดเห็น