To celebrate the anniversary, I am giving you (finally...) : iPhone LickByNeck !!!!!!

The Greatest Love Of All

Classic George Benson/Whitney Houston's hit fingerstyle chord melody guitar arrangement played in the key of G.

Greatest Love Of All played in the key of G.
http://classicalguitartablature.blogspot.com/
E|--------------------------------|--------------------------------|
B|---- 0 0 0---- 0-- 0 0 0--------|---- 0 0-------- 5 3---- 0------|
G|---- 0 0 0---- 0-- 0 0 0 2 0----|---- 0 0 2 0-- 0 4 0---- 2 2----|
D|-- 0-- 0 0---- 1-- 1 1 1 1---- 1|-- 2-------- 2-- 3 2-- 2-- 0-- 3|
A|--------------------------------|-------------------- 0-- 2-- 4--|
E| 3-------------- 3---------- 3--| 3-------------- 3--------------|
http://classicalguitartablature.blogspot.com/
E|---- 0 0 0 0-- 0-- 0 0 0--------|------ 0---------- 0------------|
B|---- 3-- 3 3-- 3-- 3-- 3 1------| 1 3------ 3---------- 3-- 1-- 3|
G|---- 0 0 0 0-- 1-- 1---- 1 1-- 1|-------- 2-- 2 2-- 1-- 1 1-- 1 2|
D|-- 2---------------------- 2 2--|--------------------------------|
A| 3-------------- 3------------ 3|---------------- 3------------ 2|
E|--------------------------------|--------------------------------|
http://classicalguitartablature.blogspot.com/
http://classicalguitartablature.blogspot.com/
E|--------------------------------|--------------------------------|
B|---------- 5------------------ 0| 0---------------- 7 5-- 3------|
G|------ 2------ 2 0---- 0-- 0 2--| 2-- 2-- 2-- 2---- 5 5-- 5-- 5--|
D|---- 4------ 4------ 2----------|-- 2-- 2-- 4------ 5 5---- 4 4--|
A|-------- 0----------------------|-------- 6------ 5------ 3------|
E|---------------- 3------ 2------| 0------------------------------|
http://classicalguitartablature.blogspot.com/
E|--------------------------------|--------------------------------|
B| 3-------- 5---------------- 0 0|------------ 0---- 3-- 0--------|
G| 2---- 2------ 2 0-- 0-- 0 2-- 2|-- 2-- 2-- 2---- 5 2-- 2-- 2----|
D|---- 4------ 4------ 2----------| 2-- 2-- 4-------- 5-- 4-- 0-- 2|
A| 2------ 0----------------------|------ 6-------- 5-- 3-- 2-- 0--|
E|---------------- 3---- 2------ 0|--------------------------------|
http://classicalguitartablature.blogspot.com/
E|--------------------------------|--------------------------------|
B|---- 0 0 0---- 0-- 0 0 0--------|---- 0 0-------- 5 3---- 0------|
G|---- 0 0 0---- 0-- 0 0 0 2 0----|---- 0 0 2 0-- 0 4 0---- 2 2----|
D|-- 0-- 0 0---- 1-- 1 1 1 1---- 1|-- 2-------- 2-- 3 2-- 2-- 0-- 3|
A|--------------------------------|-------------------- 0-- 2-- 4--|
E| 3-------------- 3---------- 3--| 3-------------- 3--------------|
http://classicalguitartablature.blogspot.com/
E|---- 0 0 0 0-- 0-- 0 0 0--------|------ 0---------- 0------------|
B|---- 3-- 3 3-- 3-- 3-- 3 1------| 1 3------ 3---------- 3-- 1-- 3|
G|---- 0 0 0 0-- 1-- 1---- 1 1-- 1|-------- 2-- 2 2-- 1-- 1 1-- 1 2|
D|-- 2---------------------- 2 2--|--------------------------------|
A| 3-------------- 3------------ 3|---------------- 3------------ 2|
E|--------------------------------|--------------------------------|
http://classicalguitartablature.blogspot.com/
E|--------------------------------|--------------------------------|
B|---------- 5------------------ 0| 0---------------- 7 5-- 3------|
G|------ 2------ 2 0---- 0-- 0 2--| 2-- 2-- 2-- 2---- 5 5-- 5-- 5--|
D|---- 4------ 4------ 2----------|-- 2-- 2-- 4------ 5 5---- 4 4--|
A|-------- 0----------------------|-------- 6------ 5------ 3------|
E|---------------- 3------ 2------| 0------------------------------|
http://classicalguitartablature.blogspot.com/
E|--------------------------------|--------------------------------|
B| 3-------- 5---------------- 0 0|------------ 0---- 3-- 0--------|
G| 2---- 2------ 2 0-- 0-- 0 2-- 2|-- 2-- 2-- 2---- 5 2-- 2---- 2--|
D|---- 4------ 4------ 2----------| 2-- 2-- 4-------- 5-- 4-- 0-- 3|
A| 2------ 0----------------------|------ 6-------- 5-- 3-- 2-- 4--|
E|---------------- 3---- 2------ 0|------------------------------ 8|
http://classicalguitartablature.blogspot.com/
E|--------------------------------| 2 2 3 3-- 5-- 7-- 7 5----------|
B|-- 8 8-- 8-- 8-- 7-- 8-- 8---- 8| 3 3-- 3------ 5-- 5 6-- 8-- 7--|
G|-- 9-- 9 7-- 7-- 6------ 5-- 5--| 2 2-- 2 2-- 2 5-- 5---- 5-- 6--|
D|-- 9-- 9-- 5-- 5-- 5 5---- 5----|-------------------------- 7-- 7|
A|------------------------ 5------|------------------ 6---- 5-- 4--|
E|-------- 7------ 6------ 5------| 3---- 2------ 0----------------|
http://classicalguitartablature.blogspot.com/
E|---------------- 2-- 3-- 3------|-------------- 7---- 5------ 2--|
B| 7-- 8-- 8-- 8-- 3-- 3-- 3-- 7--| 7 8---- 8--10-- 8-- 8-- 8-- 5--|
G| 7-- 7-- 7-- 5---- 2-- 2 2-- 5--| 5-- 5-- 9-- 8-- 7-- 7-- 5-- 4--|
D|-- 7-- 5-- 5-- 5---------- 1-- 5|-- 7-- 7-- 9-- 7-- 7-- 5-- 5-- 2|
A|--------------------------------| 6-- 5--------------------------|
E| 8-- 7-- 6-- 5-- 3-- 2-- 1 0----|-------- 9-- 8-- 7-- 6-- 5-- 3--|
http://classicalguitartablature.blogspot.com/
E| 2-- 3--------------------------|------ 3-- 5-- 7-- 5-- 3--------|
B| 3-- 3-- 8-- 7-- 7-- 8-- 8---- 7| 7-- 8-- 5-- 5 8-- 8-- 3------ 4|
G| 2-- 2-- 5-- 5-- 5-- 9-- 8---- 7| 7-- 5-- 5-- 5 5-- 5-- 3------ 3|
D|-- 2-- 1-- 5-- 7-- 5-- 9-- 7-- 5|-- 5-- 5-- 5-------- 5---- 5----|
A|------------ 6-- 5--------------|---------------- 8 7-- 6---- 5 3|
E| 2-- 1-- 0---------- 9-- 8-- 7--| 6-- 5-- 3-- 2------------------|
http://classicalguitartablature.blogspot.com/
E|-------------------- 3----------|--------------------------------|
B|-------------------- 5-- 7-- 5 3|---------- 5--------------------|
G|-------- 5-- 4------ 4-- 5-- 6--| 2---- 2------ 2---- 0------ 2--|
D|-- 5------ 5 3------ 5-- 7-- 5--|---- 4------ 4---- 2------ 1----|
A|--------------------------------| 2------ 0-------------------- 7|
E|---- 6-- 5---- 4 3------ 5-- 6--|-------------- 3------ 2--------|
http://classicalguitartablature.blogspot.com/
E|--------------------------------|--------------------------------|
B|-------- 8---- 7-- 5-- 3--------| 3------------ 3----------------|
G|---- 5------ 5 5------ 5-- 5----| 2---- 2-- 2-- 4---- 4---- 2----|
D|-- 5------ 5---- 5-- 5---- 4 4--|---- 4-- 4-------- 2---- 1-- 1--|
A|------ 6------ 5------ 3--------| 2------ 0-------------------- 7|
E|--------------------------------|-------------- 3-------- 2------|
http://classicalguitartablature.blogspot.com/
E|--------------------------------|--------------------------------|
B|-------- 8---- 7---- 7 5---- 5 3|-------- 5------------------ 0 0|
G|---- 5------ 5 5-- 5-- 2-- 2----|---- 2------ 2 0---- 0-- 0 2 0 2|
D|-- 5------ 5---- 5------ 4------|---- 4---- 4------ 2------------|
A|------ 6------ 5------ 3------ 2|------ 0------------------------|
E|--------------------------------|-------------- 3------ 2------ 0|
http://classicalguitartablature.blogspot.com/
E|--------------------------------|---------- 8-- 7------ 5--------|
B|---------- 0-------- 3-- 0------|----------10---- 8-- 8 7--------|
G|-- 2-- 2-------- 5-- 2-- 2-- 2--| 0-- 0---- 9------ 8-------- 5--|
D| 2-- 2---- 4 4---- 5-- 4-- 0-- 2|---- 0-------------------- 7----|
A|------ 6-------- 5-- 3-- 2-- 0--|-------- 9------ 8------ 6------|
E|--------------------------------| 3------------------------------|
http://classicalguitartablature.blogspot.com/
E| 3---------- 5------------------|---------- 8-- 7-- 5-- 3--------|
B| 0-- 0------ 3 1----------------|-- 3------ 6-- 5-- 5-- 3-- 6-- 8|
G|------ 0-- 4-- 2---- 2 7------ 5|------ 4------ 4-- 4-- 2-- 7-- 5|
D|-- 0-------------- 2-- 6--------| 3-- 3---- 6------------ 1-- 6--|
A|-------- 5---- 3----------------|------------------------------ 6|
E| 0-------------------- 7-- 6-- 5|------ 4------ 3---- 2 1-- 0----|
http://classicalguitartablature.blogspot.com/
E|--------------------------------|-------------- 7------ 5------ 3|
B|---------------- 5--------------|-------------- 6------ 5--------|
G|------ 5---- 5-- 3-- 3------ 2--| 7-- 7------ 7------ 5 5---- 5--|
D|-- 7------ 7------ 5------ 2----|-- 5------ 5------ 5------ 4----|
A|-------- 5------ 4------ 3------|--------------------------------|
E|--------------------------------| 7---- 6------ 5------ 4--------|
http://classicalguitartablature.blogspot.com/
E|--------12----10 8--------------|12------10---- 8-------------- 8|
B| 1--------10-- 8-- 8------------|11------13----10------12------ 5|
G|---- 0---- 9 9 8-- 8-- 8---- 7--| 9--10--12------ 9----10--------|
D|-- 2------10------ 7------ 7----|----10------10----10--12--------|
A|------ 9-------- 8---- 7--------|---------------- 8-- 910--11----|
E| 3------------------------------| 9--10--11--12---------------- 5|
http://classicalguitartablature.blogspot.com/
E|--------------------------------|--12------10------------ 8------|
B|--------------------------------|10-------- 8------------ 7------|
G|---- 5------ 4------ 2---- 2----| 9-------- 7---------- 5--------|
D|-- 5------ 3------ 2-------- 0--|--------------------------------|
A|------------------------------ 8|---------- 7---------- 6--------|
E|-------- 4------ 3------ 2------|--------------------------------|
http://classicalguitartablature.blogspot.com/
E|---- 7-------------------- 8----|--------------------------------|
B|---- 6-------------------- 6----|--------------------------------|
G|---- 5-------------------- 5----|--------------------------------|
D|--------------------------------|--------------------------------|
A|-- 5---------------------- 4----|--------------------------------|
E|--------------------------------|--------------------------------|
http://classicalguitartablature.blogspot.com/

0 ความคิดเห็น:

แสดงความคิดเห็น