To celebrate the anniversary, I am giving you (finally...) : iPhone LickByNeck !!!!!!

Have You Ever Seen The Rain

Classic Creedence Clearwater Rivival's hit fingerstyle chord melody guitar arrangement played in the key of E.
http://classicalguitartablature.blogspot.com/

http://classicalguitartablature.blogspot.com/
Have You Ever Seen The Rain played in the key of E.
http://classicalguitartablature.blogspot.com/
E|------------------------------ 9|--------------------------------|
B| 5---------------------------- 9|----12------ 9------ 9-- 7---- 5|
G| 4-------- 6-- 9------------ 9 9|----11------ 6------ 6-- 8---- 2|
D| 4-- 4---- 6-------- 9------ 7--|----10--10-- 7------ 6-- 7---- 2|
A|--------------------------------|------------ 6------ 7-- 8------|
E| 4---- 6------ 7------ 8--------| 9--10--------------------------|
http://classicalguitartablature.blogspot.com/
E|--------------------------------| 9-- 7-------------- 4----------|
B|--------------------------------| 9-- 9------ 9------ 5-- 7------|
G|---- 4------ 4---- 4---- 5------| 9-- 9------ 9------ 5-- 4------|
D|---- 3------ 4---- 4-- 4--------|------------ 7---------- 7------|
A|--------------------------------|-------------------- 5-- 6------|
E| 2-- 3------ 4-------- 5--------| 6-- 7------ 9------------------|
http://classicalguitartablature.blogspot.com/
E|--------------------------------| 4-- 0--------------------------|
B|-------------- 5---- 2----------| 4-- 0------ 5------------------|
G|------ 4---- 6 5---- 4---- 4----| 2-- 1------ 6------ 6------ 4--|
D|---- 6-- 4-- 4 4---- 2------ 2--|------------ 6------ 6------ 4--|
A|-------- 6------ 5---- 4--------| 3------ 2----------------------|
E| 0------------------------------|---------------- 6------ 5------|
http://classicalguitartablature.blogspot.com/
E|---------------- 0--------------| 4---------------------- 7-- 7--|
B|------------ 2-- 3-- 2----------| 7-- 5------ 5----------10-- 7--|
G|-------- 4------ 2-- 1------ 1--| 4-- 5------ 4------ 4-- 9-- 8--|
D|---- 2-- 2---------- 2------ 2--|---- 4------ 2------ 2----------|
A|--------------------------------| 6------ 5------ 4--------------|
E| 4------ 2------ 1------ 0------|------------------------ 8------|
http://classicalguitartablature.blogspot.com/
E|--------------------------------|---- 7------ 7------ 5-------- 5|
B|---------------- 5---------- 5--|12-- 9------ 7------ 7------ 7 5|
G|---- 8------ 4-- 4---------- 4--| 9-- 7------ 6------ 4------ 4 5|
D|---- 7------ 4------ 2------ 3--|11------------------------------|
A|--------------------------------| 9------ 8------ 7---- 6--------|
E| 7------ 5------ 4------ 3------|--------------------------------|
http://classicalguitartablature.blogspot.com/
E|---- 4------ 4------------------| 9-- 7-------------- 4----------|
B|---- 5------ 4---------- 0------| 9-- 9------ 9------ 5-- 7------|
G|---- 4------ 2---- 2---- 1------| 9-- 9------ 9------ 5-- 4------|
D|---------------------------- 2--|------------ 7---------- 7------|
A| 5------ 4------ 3---- 2--------|-------------------- 5-- 6------|
E|--------------------------------| 6-- 7------ 9------------------|
http://classicalguitartablature.blogspot.com/
E|--------------------------------| 4-- 0--------------------------|
B|-------------- 5---- 2----------| 4-- 0------ 5------------------|
G|------ 4---- 6 5---- 4---- 4----| 2-- 1------ 6------ 6------ 4--|
D|---- 6-- 4-- 4 4---- 2------ 2--|------------ 6------ 6------ 4--|
A|-------- 6------ 5---- 4--------| 3------ 2----------------------|
E| 0------------------------------|---------------- 6------ 5------|
http://classicalguitartablature.blogspot.com/
E|---------------- 0--------------| 4---------------------- 7-- 7--|
B|------------ 2-- 3-- 2----------| 7-- 5------ 5----------10-- 7--|
G|-------- 4------ 2-- 1------ 1--| 4-- 5------ 4------ 4-- 9-- 8--|
D|---- 2-- 2---------- 2------ 2--|---- 4------ 2------ 2----------|
A|--------------------------------| 6------ 5------ 4--------------|
E| 4------ 2------ 1------ 0------|------------------------ 8------|
http://classicalguitartablature.blogspot.com/
E|--------------------------------|---- 7------ 7------ 5-------- 5|
B|---------------- 5---------- 5--|12-- 9------ 7------ 7------ 7 5|
G|---- 8------ 4-- 4---------- 4--| 9-- 7------ 6------ 4------ 4 5|
D|---- 7------ 4------ 2------ 3--|11------------------------------|
A|--------------------------------| 9------ 8------ 7---- 6--------|
E| 7------ 5------ 4------ 3------|--------------------------------|
http://classicalguitartablature.blogspot.com/
E|---- 4------ 4------------------|--------------------------------|
B|---- 5------ 4---------- 3------| 5-------------- 3------ 3------|
G|---- 4------ 2---- 2---- 2------| 4------ 7------ 2------ 4------|
D|---------------------------- 0--|---- 6------ 6------ 4------ 2--|
A| 5------ 4------ 3------ 2------| 5------ 7----------------------|
E|--------------------------------|---------------- 2------ 4------|
http://classicalguitartablature.blogspot.com/
E|---------------- 9-------- 7----| 7-- 4---------------- 4---- 5--|
B| 2--------------10-------- 9-- 9| 4-- 4 7-------- 4---- 4---- 4--|
G| 2-------------- 9-------- 9-- 9| 4-- 4 9-------- 4---- 4---- 4--|
D|---- 2------ 2------11-------- 7|------------ 7------ 4----------|
A|---------------- 9---- 7--------| 6------------------------------|
E| 5------ 4----------------------|------ 9-------- 7------ 5------|
http://classicalguitartablature.blogspot.com/
E| 7------------ 7----------------|--------------------------------|
B| 5--12------12 7---- 5----------| 5------------------------------|
G| 4-- 9------ 9 6---- 5------ 5--| 4---------- 2 2------------ 1--|
D|----11------11------ 4------ 4--|---- 2------ 4------ 0------ 0--|
A|-------- 9------ 7------ 5------| 4---- 3-------- 2------ 1------|
E| 4------------------------------|--------------------------------|
http://classicalguitartablature.blogspot.com/
E|-------------- 9---------- 7-- 7|---- 4--------------------------|
B|----------------10-------- 9 9 4|---- 4 7-------------- 9----10--|
G| 6---------- 6-- 9-------- 9 9 4|---- 4 6------------ 7 9---- 9--|
D|---- 7------ 7------11------10--|------------ 7------ 9-- 7-- 7--|
A|--------------------------------| 6---- 7-------- 8------ 9------|
E| 5------ 7------ 9------10------|--------------------------------|
http://classicalguitartablature.blogspot.com/
E| 7-- 7---------- 7--------------|--------------------------------|
B| 5-- 7---------- 9--------------| 5------------------------------|
G| 4-- 6------ 6-- 9-- 9----------| 4---------- 4-- 1------ 2 4-- 2|
D|------------ 5------ 7------ 7--|---- 2------ 4------ 0 2-- 2----|
A|--------------------------------| 4------ 6----------------------|
E| 4------ 5------ 7------ 8------|---------------- 0------ 2-- 4 5|
http://classicalguitartablature.blogspot.com/
E|--------------------------------|-------------- 4---- 2----------|
B|-------------- 2---- 5-------- 5|-------------- 2---- 4------ 4--|
G|---------------- 1-- 2------ 2 2|---- 4-------- 2---- 2------ 2--|
D|---- 2------ 6-- 2-- 4------ 4 2|---- 4------ 4-------------- 4--|
A|---------------- 2------ 3------| 4------ 6----------------------|
E|------ 6------------------------|---------------- 0------ 2------|
http://classicalguitartablature.blogspot.com/
E|------------------------------ 9|--------------------------------|
B| 5---------------------------- 9|----12------ 9------ 9-- 7---- 5|
G| 4-------- 6-- 9------------ 9 9|----11------ 6------ 6-- 8---- 2|
D| 4-- 4---- 6-------- 9------ 7--|----10--10-- 7------ 6-- 7---- 2|
A|--------------------------------|------------ 6------ 7-- 8------|
E| 4---- 6------ 7------ 8--------| 9--10--------------------------|
http://classicalguitartablature.blogspot.com/
E|--------------------------------| 9-- 7-------------- 4----------|
B|--------------------------------| 9-- 9------ 9------ 5-- 7------|
G|---- 4------ 4---- 4---- 5------| 9-- 9------ 9------ 5-- 4------|
D|---- 3------ 4---- 4-- 4--------|------------ 7---------- 7------|
A|--------------------------------|-------------------- 5-- 6------|
E| 2-- 3------ 4-------- 5--------| 6-- 7------ 9------------------|
http://classicalguitartablature.blogspot.com/
E| 0------------------------------|--------------------------------|
B| 0------------------------------|--------------------------------|
G|-- 1----------------------------|--------------------------------|
D|---- 4--------------------------|--------------------------------|
A|------ 2------------------------|--------------------------------|
E|-------- 0----------------------|--------------------------------|
http://classicalguitartablature.blogspot.com/

0 ความคิดเห็น:

แสดงความคิดเห็น