To celebrate the anniversary, I am giving you (finally...) : iPhone LickByNeck !!!!!!

Here Comes The Sun

Beatles' tune fingerstyle chord melody guitar arrangement played in the key of A.

Here Comes The Sun played in the key of A.
ClassicalGuitarTablature http://classicalguitartablature.blogspot.com/
E|------ 9---------- 9------------|-- 9----------------------------|
B|----1010--10--12--10--------10--|--10------12------10---------- 7|
G|---- 9 9-- 9-- 9-- 9-------- 9--|------------ 9---- 9------ 9-- 7|
D|----11----11--11----------------|11------11----11------11------ 0|
A| 0---------------------- 0------|--------------------------------|
E|--------------------------------|--------------------------------|
ClassicalGuitarTablature http://classicalguitartablature.blogspot.com/
E|-------- 9-- 7------------------|------------------ 7------------|
B|-------- 7-- 7------10------10--| 9------ 9--10------------------|
G|-- 7-------- 7-- 7------ 7------| 7------ 7-- 7-------------- 7--|
D|--------------------------------|---- 9------ 9 9------ 9--------|
A|--------------------------------|--------------------------------|
E|--------------------------------| 0------------------------------|
ClassicalGuitarTablature http://classicalguitartablature.blogspot.com/
E|------ 9---------- 9------------|---- 9--------------------------|
B|--------10--10--12--10------10--|----10------12----10---------- 7|
G|------------ 9-- 9-- 9------ 9--|------------ 9---- 9------ 9-- 7|
D|----11----11----11----------11--|11------11------------11------ 0|
A| 0---------------------- 0------|--------------------------------|
E|--------------------------------|--------------------------------|
ClassicalGuitarTablature http://classicalguitartablature.blogspot.com/
E|------ 9-- 7--------------------| 4------------------------------|
B|------ 7-- 7------10------------| 3------------------------------|
G|-- 7-- 7-- 7------ 7------ 7-- 4|--------------------------------|
D|---------------------- 0--------|--------------------------------|
A|--------------------------------|--------------------------------|
E|------------------------------ 0|--------------------------------|
ClassicalGuitarTablature http://classicalguitartablature.blogspot.com/
E|------ 9------------ 9----------|------ 9---------- 9------ 5----|
B|------10------12----10----10----|------10--10--12--10------ 7----|
G|-------------- 9---------- 9----|---------- 9-- 9------------ 7--|
D|--11------11----------11--------|--11----------11-------------- 0|
A| 0---------------------------- 0|--------------------------------|
E|--------------------------------|--------------------------------|
ClassicalGuitarTablature http://classicalguitartablature.blogspot.com/
E|-------- 9---- 7---- 9----------|---------- 7------ 5 7 5--------|
B|-------- 7---- 7---- 7------10--|---------- 4------ 4------------|
G|---- 7---- 7-------- 7------ 8--|-------- 8 4-------------- 4----|
D|---------------------------- 7--|---- 7---------------- 4--------|
A|--------------------------------|-------------- 6----------------|
E|------------------------------ 7|------------------------------ 0|
ClassicalGuitarTablature http://classicalguitartablature.blogspot.com/
E|------ 9------------------------|------ 7------------ 7-------- 7|
B|------10--12--------10----------|----10----------10--------10----|
G|------------ 9------ 9------ 9--|11-------- 9------------ 7------|
D|--11------------11------11------| 0------------------------------|
A|--------------------------------|--------------------------------|
E|--------------------------------|---------- 9------------ 7------|
ClassicalGuitarTablature http://classicalguitartablature.blogspot.com/
E|---------- 7--------------------|------ 9------------ 9----------|
B|------10------10---- 9 7-- 5----|------10--10--12----------------|
G|-- 9---------- 9---- 9 7---- 7--|---------- 9-- 9------------ 9--|
D|-------------- 9---- 9 6-- 6----|--11------11------------11------|
A|--------------------------------| 0-------------- 0--------------|
E|-- 9------------10---- 0--------|--------------------------------|
ClassicalGuitarTablature http://classicalguitartablature.blogspot.com/
E|---- 9--------------------------|---- 5---- 9-- 7---- 5---- 2----|
B|----10------12------10---- 7----|---- 7-------- 7---- 7---- 0----|
G|---- 9------ 9------ 9---- 7----|------ 7-------------- 7-- 1----|
D|------------11------11-------- 0|---------------- 0--------------|
A| 0------ 0------ 0------ 0------|--------------------------------|
E|--------------------------------|------------------------------ 0|
ClassicalGuitarTablature http://classicalguitartablature.blogspot.com/
E|-- 0----------------------------|------ 9------------ 9----------|
B|-- 0------------------ 5--------|------10--10--12----------------|
G|-------- 1-- 1 2------ 4--------|---------- 9-- 9------------ 9--|
D|-------------------- 0-- 2 2----|--11------11------------11------|
A|--------------------------------| 0-------------- 0--------------|
E|---------------- 2------ 4------|--------------------------------|
ClassicalGuitarTablature http://classicalguitartablature.blogspot.com/
E|---- 9--------------------------|------------ 9 7---------- 4----|
B|----10------12------10------ 7--|-------- 7----------10---- 3----|
G|---- 9------ 9------ 9------ 7--|---- 7------------------ 7 4----|
D|------------11------11-------- 0|---------------- 0--------------|
A| 0------ 0------ 0------ 0------|--------------------------------|
E|--------------------------------|--------------------------------|
ClassicalGuitarTablature http://classicalguitartablature.blogspot.com/
E|--------------------------------|------ 9------------ 9----------|
B|------ 3-------------- 5--------|------10------12----10----10----|
G|-- 4------ 2------ 2-- 4--------|-------------- 9---------- 9----|
D|-------------- 0-------- 2 2----|--11------11----------11--------|
A|--------------------------------| 0---------------------------- 0|
E| 0-------- 2------------ 4------|--------------------------------|
ClassicalGuitarTablature http://classicalguitartablature.blogspot.com/
E|------ 9---------- 9------ 5----|-------- 9---- 7---- 9----------|
B|------10--10--12--10------ 7----|-------- 7---- 7---- 7------10--|
G|---------- 9-- 9------------ 7--|---- 7---- 7-------- 7------ 8--|
D|--11----------11-------------- 0|---------------------------- 7--|
A|--------------------------------|--------------------------------|
E|--------------------------------|------------------------------ 7|
ClassicalGuitarTablature http://classicalguitartablature.blogspot.com/
E|---------- 7------ 5 7 5--------|------ 9------------------------|
B|---------- 4------ 4------------|------10--12--------10----------|
G|-------- 8 4-------------- 4----|------------ 9------ 9------ 9--|
D|---- 7---------------- 4--------|--11------------11------11------|
A|-------------- 6----------------|--------------------------------|
E|------------------------------ 0|--------------------------------|
ClassicalGuitarTablature http://classicalguitartablature.blogspot.com/
E|------ 7------------ 7-------- 7|---------- 7------------------ 5|
B|----10----------10--------10----|------10------10---- 9 7-- 5-- 5|
G|11-------- 9------------ 7------|-- 9---------- 9---- 9 7---- 7 6|
D| 0------------------------------|-------------- 9---- 9 6-- 6----|
A|--------------------------------|------------------------------ 0|
E|---------- 9------------ 7------|-- 9------------10---- 0--------|
ClassicalGuitarTablature http://classicalguitartablature.blogspot.com/
E|--------------------------------|--------------------------------|
B|---------- 5---------- 3--------|---------- 0-------------- 0-- 1|
G|------ 6-- 4---------- 2------ 1|---- 1---- 1---------- 1------ 0|
D|-- 7------ 2---------- 0------ 2|---- 2---- 2------ 2---------- 2|
A|--------------------------------|------------------------------ 3|
E|------------ 4---------- 2------| 0-- 0------ 0------------------|
ClassicalGuitarTablature http://classicalguitartablature.blogspot.com/
E|-- 0-- 3------------------------|--------------------------------|
B|------------------ 3---------- 3|---------- 2------------ 2------|
G|-------------- 4---------- 2----|---------- 2------------ 2------|
D|---------- 5---------- 4--------|------ 4-- 2------------ 2------|
A|--------------------------------|-- 5------ 0--------------------|
E|---------- 3---------- 2--------|--------------------------------|
ClassicalGuitarTablature http://classicalguitartablature.blogspot.com/
E|--------------------------------|-------------- 0-- 3------------|
B|---- 2-- 2----------------------|------ 0-- 1------------------ 3|
G|---- 2-- 2------ 1---- 1--------|-- 1------ 0-------------- 4----|
D|---- 2-- 2---- 2------ 2------ 2|---------- 2---------- 5--------|
A| 0------------------------------|---------- 3--------------------|
E|---------------- 0--------------|---------------------- 3--------|
ClassicalGuitarTablature http://classicalguitartablature.blogspot.com/
E|--------------------------------|--------------------------------|
B|---------- 3---------- 2--------|---- 2---------- 2-- 2----------|
G|------ 2-------------- 2--------|---- 2---------- 2-- 2------ 1--|
D|-- 4-------------- 4-- 2--------|---- 2---------- 2-- 2---- 2----|
A|-------------- 5------ 0--------|------------ 0------------------|
E|-- 2----------------------------|---------------------------- 0--|
ClassicalGuitarTablature http://classicalguitartablature.blogspot.com/
E|-------------------------- 0-- 3|--------------------------------|
B|------------------ 0-- 1--------|---------- 3---------- 3--------|
G|-- 1---------- 1------ 0--------|------ 4---------- 2------------|
D|-- 2------ 2---------- 2--------|-- 5---------- 4-------------- 4|
A|---------------------- 3--------|-------------------------- 5----|
E|--------------------------------|-- 3---------- 2----------------|
ClassicalGuitarTablature http://classicalguitartablature.blogspot.com/
E|--------------------------------|--------------------------------|
B|-- 2------------ 2---------- 2--| 2---------------------------- 0|
G|-- 2------------ 2---------- 2--| 2------ 1---- 1---------- 1----|
D|-- 2------------ 2---------- 2--| 2---- 2------ 2------ 2--------|
A|-- 0-------------------- 0------|--------------------------------|
E|--------------------------------|-------- 0----------------------|
ClassicalGuitarTablature http://classicalguitartablature.blogspot.com/
E|------ 0-- 3--------------------|--------------------------------|
B|-- 1------------------ 3--------|-- 3---------- 2---------- 3-- 9|
G|-- 0-------------- 4---------- 2|-------------- 2---------- 2-- 7|
D|-- 2---------- 5---------- 4----|---------- 4-- 2---------- 1-- 9|
A|-- 3----------------------------|------ 5------ 0----------------|
E|-------------- 3---------- 2----|-------------------------- 1----|
ClassicalGuitarTablature http://classicalguitartablature.blogspot.com/
E|--------------------------------|-------------------------- 7----|
B|-------------- 9-- 7-- 9--10----|------10--10--10-- 9--10-- 9----|
G|-------------- 7------ 7-- 9----|------ 9-- 9-- 9-- 9-- 9-- 9----|
D|-------------- 9-- 9-- 9----11--|------11--11--11--11--11--------|
A|--------------------------------|--------------------------------|
E| 0 0---- 0 0---- 0-- 0 0---- 0 0|---- 0-- 0-- 0-- 0-- 0-- 0---- 0|
ClassicalGuitarTablature http://classicalguitartablature.blogspot.com/
E|-- 7-- 7-- 7-- 7-- 7-- 7--10----|--------------------------------|
B|---------- 9-- 9--10-- 9--10----|--------------------------------|
G|-- 9-- 9-- 9-- 9-- 9-- 9--11----|------------------11------------|
D|--------------------------------|--12--------------12------------|
A|--------------------------------|--------------------------------|
E|-- 0---- 0 0-- 0-- 0-- 0------ 0|------ 0-- 0-- 0-- 0-- 0-- 0----|
ClassicalGuitarTablature http://classicalguitartablature.blogspot.com/
E|------ 9------------ 9----------|---- 9--------------------------|
B|------10--10--12----------------|----10------12------10---- 7----|
G|---------- 9-- 9------------ 9--|---- 9------ 9------ 9---- 7----|
D|--11------11------------11------|------------11------11-------- 0|
A| 0-------------- 0--------------| 0------ 0------ 0------ 0------|
E|--------------------------------|--------------------------------|
ClassicalGuitarTablature http://classicalguitartablature.blogspot.com/
E|---- 5---- 9-- 7---- 5---- 2----|-- 0----------------------------|
B|---- 7-------- 7---- 7---- 0----|-- 0------------------ 5--------|
G|------ 7-------------- 7-- 1----|-------- 1-- 1 2------ 4--------|
D|---------------- 0--------------|-------------------- 0-- 2 2----|
A|--------------------------------|--------------------------------|
E|------------------------------ 0|---------------- 2------ 4------|
ClassicalGuitarTablature http://classicalguitartablature.blogspot.com/
E|------ 9------------ 9----------|---- 9--------------------------|
B|------10--10--12----------------|----10------12------10------ 7--|
G|---------- 9-- 9------------ 9--|---- 9------ 9------ 9------ 7--|
D|--11------11------------11------|------------11------11-------- 0|
A| 0-------------- 0--------------| 0------ 0------ 0------ 0------|
E|--------------------------------|--------------------------------|
ClassicalGuitarTablature http://classicalguitartablature.blogspot.com/
E|------------ 9 7---------- 4----|--------------------------------|
B|-------- 7----------10---- 3----|------ 3-------------- 5--------|
G|---- 7------------------ 7 4----|-- 4------ 2------ 2-- 4--------|
D|---------------- 0--------------|-------------- 0-------- 2 2----|
A|--------------------------------|--------------------------------|
E|--------------------------------| 0-------- 2------------ 4------|
ClassicalGuitarTablature http://classicalguitartablature.blogspot.com/
E|------ 9------------ 9----------|------ 9---------- 9------ 5----|
B|------10------12----10----10----|------10--10--12--10------ 7----|
G|-------------- 9---------- 9----|---------- 9-- 9------------ 7--|
D|--11------11----------11--------|--11----------11-------------- 0|
A| 0---------------------------- 0|--------------------------------|
E|--------------------------------|--------------------------------|
ClassicalGuitarTablature http://classicalguitartablature.blogspot.com/
E|-------- 9---- 7---- 9----------|---------- 7------ 5 7 5--------|
B|-------- 7---- 7---- 7------10--|---------- 4------ 4------------|
G|---- 7---- 7-------- 7------ 8--|-------- 8 4-------------- 4----|
D|---------------------------- 7--|---- 7---------------- 4--------|
A|--------------------------------|-------------- 6----------------|
E|------------------------------ 7|------------------------------ 0|
ClassicalGuitarTablature http://classicalguitartablature.blogspot.com/
E|------ 9------------------------|------ 7------------ 7-------- 7|
B|------10--12--------10----------|----10----------10--------10----|
G|------------ 9------ 9------ 9--|11-------- 9------------ 7------|
D|--11------------11------11------| 0------------------------------|
A|--------------------------------|--------------------------------|
E|--------------------------------|---------- 9------------ 7------|
ClassicalGuitarTablature http://classicalguitartablature.blogspot.com/
E|---------- 7--------------------|------ 7------------ 7-------- 7|
B|------10------10---- 9-- 7-- 5--|----10----------10--------10----|
G|-- 9---------- 9---- 9-- 7-- 7--|11-------- 9------------ 7------|
D|-------------- 9---- 9-- 6-- 6--| 0------------------------------|
A|--------------------------------|--------------------------------|
E|-- 9------------10------ 0------|---------- 9------------ 7------|
ClassicalGuitarTablature http://classicalguitartablature.blogspot.com/
E|---------- 7--------------------|------ 7------------ 7-------- 7|
B|------10------10---- 9-- 7-- 5--|----10----------10--------10----|
G|-- 9---------- 9---- 9-- 7-- 7--|11-------- 9------------ 7------|
D|-------------- 9---- 9-- 6-- 6--| 0------------------------------|
A|--------------------------------|--------------------------------|
E|-- 9------------10------ 0------|---------- 9------------ 7------|
ClassicalGuitarTablature http://classicalguitartablature.blogspot.com/
E|---------- 7--------------------|-- 0-- 3------------------------|
B|------10------10---- 9-- 7-- 5 1|-------------------- 3----------|
G|-- 9---------- 9---- 9-- 7-- 7 0|---------------- 4------------ 2|
D|-------------- 9---- 9-- 6-- 6 2|------------ 5------------ 4----|
A|------------------------------ 3|--------------------------------|
E|-- 9------------10------ 0------|---------- 3-------------- 2----|
ClassicalGuitarTablature http://classicalguitartablature.blogspot.com/
E|--------------------------------|--------------------------------|
B|---- 3------------------ 2------|--------------------------------|
G|------------------------ 2------|--------------------------------|
D|---------------- 4------ 2------|--------------------------------|
A|---------- 5------------ 0------|--------------------------------|
E|---------- 0--------------------|--------------------------------|
ClassicalGuitarTablature http://classicalguitartablature.blogspot.com/

0 ความคิดเห็น:

แสดงความคิดเห็น