To celebrate the anniversary, I am giving you (finally...) : iPhone LickByNeck !!!!!!

Hey Jude

Beatles classic fingerstyle chord melody guitar arrangement played in the key of C.

Hey Jude played in the key of C.
Classical Guitar Tablature http://classicalguitartablature.blogspot.com/
E|---------------- 1---- 1--------|------------------------ 3------|
B| 1------ 1------ 1------ 1------| 1------ 1------ 1------ 4------|
G|-------- 0------ 2-- 2---- 2----| 0------ 0------ 2---- 4--------|
D|---- 2------ 2------------------| 2-- 2------ 2-- 3---- 3--------|
A| 3-------------- 3--------------| 3---------------------------- 3|
E|--------------------------------|---------------- 3--------------|
Classical Guitar Tablature http://classicalguitartablature.blogspot.com/
E|--------------------------------|--------------------------------|
B| 5------ 5---------- 5-- 8--10--|---------------------------- 5--|
G| 4------ 4---------- 5-- 9-- 9--| 7---------------------- 7------|
D| 5-- 5-------------- 5----------| 9-- 9------ 9------ 9-- 5------|
A|------------ 5-- 7----10--------|10------ 8----------------------|
E|--------------------------------|----------------10------ 7------|
Classical Guitar Tablature http://classicalguitartablature.blogspot.com/
Classical Guitar Tablature http://classicalguitartablature.blogspot.com/
E|-------- 8---------- 8-- 7------|--------------------------------|
B| 6------ 6---------- 8-- 8-- 8--|10-- 8 6 5-------------- 8-- 8--|
G| 4---------- 5------ 7-- 7-- 7--| 9------ 5------10------ 9-- 9--|
D|---- 3 5-------- 7---------- 9--|10------ 5-- 5-- 8-- 8-- 8-- 8--|
A|--------------------------------|-------- 7------10------ 9------|
E| 3------ 5------ 7------10------| 8------------------------------|
Classical Guitar Tablature http://classicalguitartablature.blogspot.com/
E|----------------10 8---- 7 8----|---------------------------- 5 3|
B|10--10------10--1010-- 8----10--| 8-- 8---------------- 5--------|
G| 9-- 9------ 9 9-- 9-- 7--------| 5-- 5------ 7-- 5-- 7-- 5------|
D|10--10------10------------------| 5-- 5------ 5 5-------- 5------|
A| 8------ 7----------------------|--------------------------------|
E|--------------10------ 7--------| 8------ 7---- 5-------- 4------|
Classical Guitar Tablature http://classicalguitartablature.blogspot.com/
E|---------- 3--------------------|------------------------ 3------|
B| 3---------- 1-- 6-- 5---- 0----|-- 1---------- 1-------- 4------|
G| 4-- 4------ 2-- 5-- 5-- 4 0----|-- 0---------- 2------ 4--------|
D|---------------- 5-- 5-- 3 2----|-- 2---------- 3-- 3-- 3--------|
A|---------------- 7------ 5---- 3|------------------------------ 3|
E| 3------ 1----------------------|-------- 1-- 2-- 3--------------|
Classical Guitar Tablature http://classicalguitartablature.blogspot.com/
E|--------------------------------|--------------------------------|
B| 5------ 5---------- 5-- 8--10--|---------------------------- 5--|
G| 4------ 4---------- 5-- 9-- 9--| 7---------------------- 7------|
D| 5-- 5-------------- 5----------| 9-- 9------ 9------ 9-- 5------|
A|------------ 5-- 7----10--------|10------ 8----------------------|
E|--------------------------------|----------------10------ 7------|
Classical Guitar Tablature http://classicalguitartablature.blogspot.com/
E|-------- 8---------- 8-- 7------|--------------------------------|
B| 6------ 6---------- 8-- 8-- 8--|10-- 8 6 5-------------- 8-- 8--|
G| 4---------- 5------ 7-- 7-- 7--| 9------ 5------10------ 9-- 9--|
D|---- 3 5-------- 7---------- 9--|10------ 5-- 5-- 8-- 8-- 8-- 8--|
A|--------------------------------|-------- 7------10------ 9------|
E| 3------ 5------ 7------10------| 8------------------------------|
Classical Guitar Tablature http://classicalguitartablature.blogspot.com/
E|----------------10 8---- 7 8----|---------------------------- 5 3|
B|10--10------10--1010-- 8----10--| 8-- 8---------------- 5--------|
G| 9-- 9------ 9 9-- 9-- 7--------| 5-- 5------ 7-- 5-- 7-- 5------|
D|10--10------10------------------| 5-- 5------ 5 5-------- 5------|
A| 8------ 7----------------------|--------------------------------|
E|--------------10------ 7--------| 8------ 7---- 5-------- 4------|
Classical Guitar Tablature http://classicalguitartablature.blogspot.com/
E|---------- 3--------------------|--------------------------------|
B| 3---------- 1-- 6-- 5---- 0----|---- 1---------- 1---------- 1--|
G| 4-- 4------ 2-- 5-- 5-- 4 0----|---- 0------ 0-- 3------ 3------|
D|---------------- 5-- 5-- 3-- 2--|---- 2 2------------ 2----------|
A|---------------- 7------ 5---- 3|--------------------------------|
E| 3------ 1----------------------|---------------- 0--------------|
Classical Guitar Tablature http://classicalguitartablature.blogspot.com/
E|-------- 8-- 5------------------|-------- 8-- 5---------- 8------|
B|---- 1-- 5-- 5--10-- 8-- 8-- 6--|10------10-- 8---------- 8-- 6--|
G|---- 3-- 5-- 5-- 9-- 9-- 5-- 5--| 9---------- 5-------------- 5--|
D|---- 2---------- 8-- 8-- 5-- 5--|10--10-------------- 5------ 7--|
A|---------------------- 7--------| 8------------ 7-------------- 5|
E| 3------ 6------ 8--------------|--------------------------------|
Classical Guitar Tablature http://classicalguitartablature.blogspot.com/
E|------ 8------ 5----------------|------ 5---- 3------------------|
B|------ 6------ 6-- 8-- 6-- 8----|-------- 6-- 6-------- 6---- 5--|
G|-------------- 7-- 7-- 7-- 7----|-------- 5-- 4---------- 7-- 5--|
D|-- 7------ 7-------------- 5----|-- 5-------------- 3---- 9-- 5--|
A|--------------------------------|------------------------ 8---- 7|
E|-------------- 8-------------- 7|-------- 5-- 3-- 3--------------|
Classical Guitar Tablature http://classicalguitartablature.blogspot.com/
E|--------------------------------|-------- 8-- 5------------------|
B|-- 3---- 1-------- 1------------|---- 1-- 5-- 5--10-- 8-- 8-- 6--|
G|-- 3---- 3---------------- 3----|---- 3-- 5-- 5-- 9-- 9-- 5-- 5--|
D|---- 3------ 2-------- 2--------|---- 2---------- 8-- 8-- 5-- 5--|
A|---- 5-- 3----------------------|---------------------- 7--------|
E|---------------- 0--------------| 3------ 6------ 8--------------|
Classical Guitar Tablature http://classicalguitartablature.blogspot.com/
E|-------- 8-- 5---------- 8------|------ 8------ 5----------------|
B|10------10-- 8---------- 8-- 6--|------ 6------ 6-- 8-- 6-- 8----|
G| 9---------- 5-------------- 5--|-------------- 7-- 7-- 7-- 7----|
D|10--10-------------- 5------ 7--|-- 7------ 7-------------- 5----|
A| 8------------ 7-------------- 5|--------------------------------|
E|--------------------------------|-------------- 8-------------- 7|
Classical Guitar Tablature http://classicalguitartablature.blogspot.com/
E|------ 5---- 3------------------|---------------------------- 5--|
B|-------- 6-- 6-------- 6-- 5----|-- 3-- 1---------- 1-- 8---- 811|
G|-------- 5-- 4-------- 7-- 5----|-- 3-- 3------ 3------ 5------ 9|
D|-- 5-------------- 3-- 9-- 5----|-- 3------ 2---------- 8--------|
A|------------------------ 8---- 7|-- 5-- 3-------------- 7--------|
E|-------- 5-- 3-- 3--------------|--------------------------------|
Classical Guitar Tablature http://classicalguitartablature.blogspot.com/
E|--------------------------------|------------------------ 3------|
B|------11------12--13----15------|15-------------- 1------ 4------|
G|------ 9------10--10----12------|12--10--10-- 7-- 2---- 4--------|
D|-- 8-- 8---- 812----10--12--12--|12-- 9-- 9-- 5-- 3---- 3--------|
A|10--------------10--12--13------|14--10------------------------ 3|
E|--------------------------------|--------10-- 7-- 3--------------|
Classical Guitar Tablature http://classicalguitartablature.blogspot.com/
E|--------------------------------|--------------------------------|
B| 5------ 5---------- 5-- 8--10--|---------------------------- 5--|
G| 4------ 4---------- 5-- 9-- 9--| 7---------------------- 7------|
D| 5-- 5-------------- 5----------| 9-- 9------ 9------ 9-- 5------|
A|------------ 5-- 7----10--------|10------ 8----------------------|
E|--------------------------------|----------------10------ 7------|
Classical Guitar Tablature http://classicalguitartablature.blogspot.com/
E|-------- 8---------- 8-- 7------|--------------------------------|
B| 6------ 6---------- 8-- 8-- 8--|10-- 8 6 5-------------- 8-- 8--|
G| 4---------- 5------ 7-- 7-- 7--| 9------ 5------10------ 9-- 9--|
D|---- 3 5-------- 7---------- 9--|10------ 5-- 5-- 8-- 8-- 8-- 8--|
A|--------------------------------|-------- 7------10------ 9------|
E| 3------ 5------ 7------10------| 8------------------------------|
Classical Guitar Tablature http://classicalguitartablature.blogspot.com/
E|----------------10 8---- 7 8----|---------------------------- 5 3|
B|10--10------10--1010-- 8----10--| 8-- 8---------------- 5--------|
G| 9-- 9------ 9 9-- 9-- 7--------| 5-- 5------ 7-- 5-- 7-- 5------|
D|10--10------10------------------| 5-- 5------ 5 5-------- 5------|
A| 8------ 7----------------------|--------------------------------|
E|--------------10------ 7--------| 8------ 7---- 5-------- 4------|
Classical Guitar Tablature http://classicalguitartablature.blogspot.com/
E|---------- 3--------------------|--------------------------------|
B| 3---------- 1-- 6-- 5------ 0--|---- 1---- 5---- 7 8----12--13--|
G| 4-- 4------ 2-- 5-- 5-- 4-- 0--|---- 0 8-- 5---- 9 9----12--12--|
D|---------------- 5-- 5-- 3-- 2--|---- 2 5--------1010----14--14--|
A|---------------- 7------ 5---- 3|------ 7--------10------15------|
E| 3------ 1----------------------|--------------------------------|
Classical Guitar Tablature http://classicalguitartablature.blogspot.com/
E|11--12--14--15-- 8------ 8------|--------------------------------|
B|13--13--17--17-- 8------ 8------| 1------ 1------ 5------ 8------|
G|12--12--16--16-- 9------ 9------| 0------ 0------ 5------ 9-- 9--|
D|----------------------1010------| 2------ 2------ 5------10--10--|
A|----------------------1010------| 3---------- 3-- 7------10------|
E| 0------15------ 8--------------|--------------------------------|
Classical Guitar Tablature http://classicalguitartablature.blogspot.com/
E|10--10-- 8----------------------|10--10-- 8-------------- 6-- 5 3|
B|131313--11--11------11------ 6--|131313--10--10------10-- 6-- 6 5|
G|101010--10--10------10------ 7--|10--10--10----------10-- 5-- 5--|
D|--12-------- 8------ 8------ 8--|--------------------10----------|
A|--------------------------------|12------ 8----------------------|
E|13------10------ 8------ 6------|---------------- 8------ 5------|
Classical Guitar Tablature http://classicalguitartablature.blogspot.com/
E|---- 3--------------------------|--------------------------------|
B|---- 5------ 6-------- 8---- 8--| 1------ 1------ 5------ 8------|
G| 5---------- 5------ 7---- 7----| 0------ 0------ 5------ 9-- 9--|
D|---------- 3------ 5------ 5----| 2------ 2------ 5------10--10--|
A|--------------------------------| 3---------- 3-- 7------10------|
E| 3------ 5------ 6------ 7------|--------------------------------|
Classical Guitar Tablature http://classicalguitartablature.blogspot.com/
E|10--10-- 8----------------------|10--10-- 8-------------- 5-- 8--|
B|131313--11--11------11------ 6--|131313--10--10------10-- 6-- 8--|
G|101010--10--10------10------ 7--|10--10--10----------10-- 5-- 7--|
D|--12-------- 8------ 8------ 8--|--------------------10----------|
A|--------------------------------|12------ 8----------------------|
E|13------10------ 8------ 6------|---------------- 8------ 5-- 6--|
Classical Guitar Tablature http://classicalguitartablature.blogspot.com/
E|12------------------------------|--------------------------------|
B| 8------------------------------|--------------------------------|
G| 9------------------------------|--------------------------------|
D|--------------------------------|--------------------------------|
A|--------------------------------|--------------------------------|
E| 8------------------------------|--------------------------------|

0 ความคิดเห็น:

แสดงความคิดเห็น