To celebrate the anniversary, I am giving you (finally...) : iPhone LickByNeck !!!!!!

Hey You (Intermediate)

"Live Earth" theme song fingerstyle solo guitar arrangement played in the key of D.

Hey You played in the key of D.
ClassicalGuitarTablature http://classicalguitartablature.blogspot.com/
E|-------------------- 3--| 2------------ 2-- 3-- 2|
B|------------------------| 3---- 3-- 5-- 5-- 5-- 3|
G|------------------------| 2---- 2---- 2 2-- 2----|
D|------------------------|---- 4------ 2----------|
A|------------------------| 5---------- 4----------|
E|------------------------|------------------------|
ClassicalGuitarTablature http://classicalguitartablature.blogspot.com/
E|------ 2----------------|------------------ 3----|
B|---- 3---- 5---- 7 8-- 7|------ 7---- 5-- 7 3----|
G|-- 3---- 3 7---- 7-- 7--| 7-- 7------ 5-- 5-- 3--|
D|-------------- 5---- 5--|-- 5---- 5---- 5-- 5----|
A| 3----------------------|------------------------|
E|---------- 7------------| 6---------- 5------ 2--|
ClassicalGuitarTablature http://classicalguitartablature.blogspot.com/
E|-------------------- 3--|------------------------|
B| 0---- 0 3-- 5---- 5 5--| 7---- 7---- 5-- 7-- 8--|
G| 0-- 0-- 0-- 3-- 3-- 3--| 6-- 6------ 5-- 5-- 5--|
D|-- 0---------- 3--------|-- 7---- 7-- 5-- 5-- 5--|
A|-------- 2-- 3------ 4--| 5---------- 7----------|
E| 3----------------------|------------------------|
ClassicalGuitarTablature http://classicalguitartablature.blogspot.com/
E|---------------- 2-- 3--| 2----------------------|
B| 7---- 7---- 5-- 5-- 2--| 3---- 3-- 5-- 7-- 8-- 0|
G| 7-- 7------ 2------ 2--| 4-- 4---- 5---- 5-- 7 0|
D| 7 7---- 7---- 2--------|-- 4---- 4 5-- 5---- 5--|
A| 9----------------------|---------------------- 2|
E|------------ 3----------| 4-------- 5-------- 6--|
ClassicalGuitarTablature http://classicalguitartablature.blogspot.com/
E|---------------------- 0|---- 0 0------------ 3--|
B|------ 0 3-- 5-------- 1|---- 1-- 1 3-- 3---- 3--|
G|---- 0-- 4-- 5 5-- 4-- 0|-- 0-- 0---- 5 5--------|
D|-- 0---- 5-- 5-- 3 3----|-------------- 5-- 5----|
A|-------- 5-- 7-- 5-- 4 3|------------------------|
E|------------------------|------------ 6----------|
ClassicalGuitarTablature http://classicalguitartablature.blogspot.com/
E|------------------------|------------------ 3----|
B| 7---- 5-- 5---------- 5|-- 5---- 5 3---- 3 5-- 7|
G| 7 7-- 7-- 2---- 2-- 2 5|-- 5---- 5 4---- 4 2-- 7|
D|-- 7---------- 4-- 4----|-- 5-- 5------ 5-- 5----|
A|---------------------- 7|---------- 5-------- 4--|
E| 5-------- 2------------|------------------------|
ClassicalGuitarTablature http://classicalguitartablature.blogspot.com/
E|------------------------|-------------------- 3 2|
B|------------ 5---- 5----| 5-- 5-- 5-- 3-- 3-- 3 3|
G|-- 7-- 9---- 7-- 7------| 5-- 5-- 5-- 5-- 5------|
D| 7---- 7------ 5---- 5--|-- 5-- 5------ 5-- 5----|
A|------------------------|------------------------|
E| 8---------- 7----------| 6---------- 3----------|
ClassicalGuitarTablature http://classicalguitartablature.blogspot.com/
E|------------ 0----------| 0-- 0-- 0--------------|
B|------ 5---- 3---- 3----| 1-- 1-- 1 3-- 3---- 3--|
G|-- 2-- 2-------- 2------|------ 0-- 5-- 5---- 5--|
D|-- 4-- 4------ 0---- 0--|-- 2---------- 5-- 5----|
A|------------------------|------------ 6----------|
E| 2---------- 1----------| 0----------------------|
ClassicalGuitarTablature http://classicalguitartablature.blogspot.com/
E|------------------------|------------------------|
B|---- 3-- 3---------- 3--| 3---- 3----------------|
G|---- 5-- 5------ 4-- 4--| 2-- 2------ 5-- 5-- 4--|
D|-- 4-- 4-- 4-- 5-- 5----| 4 4---- 4---- 3-- 3 3--|
A|------------------------| 5---------- 5------ 4--|
E| 4---------- 5----------|------------------------|
ClassicalGuitarTablature http://classicalguitartablature.blogspot.com/
E| 3---- 3----------------|------------------------|
B| 1-- 1---- 1-------- 6 5| 6 5 5------------ 3-- 8|
G|-- 0---- 0 5-- 5-- 5 5 5| 5 5 5-- 5------ 5------|
D|-------------- 5---- 5 5| 3---- 3-- 3-- 3---- 3--|
A| 3----------------------|------------------------|
E|---------- 6------------| 5---------- 3----------|
ClassicalGuitarTablature http://classicalguitartablature.blogspot.com/
E|------------ 3----------|------------------ 8-- 5|
B|------ 8---- 6---- 6 6 5| 6 5------------ 6---- 5|
G| 7 7 7---------- 3-- 7 7| 5-- 5-- 5---- 5------ 5|
D|-- 8---- 8---- 3---- 7 7| 5---- 5------ 4--------|
A| 8---------- 5----------|------------------------|
E|-------------------- 6--| 5-------- 4---------- 3|
ClassicalGuitarTablature http://classicalguitartablature.blogspot.com/
E|-- 3-------------- 8-- 5|---------------------- 5|
B|-- 5-- 5----------10-- 5|------ 5------------ 8--|
G|-- 5-- 5-------- 9---- 5|---- 5-------- 5---- 5--|
D|-------------- 8--------|-- 7---- 7---- 5-- 5----|
A|---------- 9---------- 8|---------- 7------------|
E|------------------------|------------------------|
ClassicalGuitarTablature http://classicalguitartablature.blogspot.com/
E|---------------- 5---- 5|------------------------|
B|11--11--11--11-- 8-- 8 5|------ 5-- 3-- 5-- 4-- 8|
G|101010--10--10-- 7-- 7--|---- 5---- 5-- 4-- 4-- 7|
D| 8 8-- 8---- 8---- 5----|-- 5---- 5 3-- 3---- 3 7|
A|------------------------|-------------------- 4--|
E|10---------- 8-- 6---- 5|---------- 4---- 3---- 8|
ClassicalGuitarTablature http://classicalguitartablature.blogspot.com/
E|------------------------| 5-- 5-- 5-- 5-- 5-- 5--|
B|---- 8-- 8 8-- 8---- 8--| 6-- 6-- 6-- 4-- 4-- 4--|
G|---- 7-- 7 5 5 5---- 5--| 5 5-- 5---- 5 5-- 5----|
D|-- 7-- 7-- 5-- 5-- 5----|------------------------|
A|------------------------|------------------------|
E|---------- 6------------| 5---------- 3----------|
ClassicalGuitarTablature http://classicalguitartablature.blogspot.com/
E| 6-- 6-- 6--------------|------------ 5----------|
B| 6-- 6-- 6--11--10-- 8--|10--1010---- 5-- 8--10 8|
G| 7 7-- 7----10--10--10--| 9-- 9-- 7-- 5-- 7-- 8 7|
D|------------ 8 8-- 8----|-- 7-- 7 9------ 6-- 7--|
A| 8----------------------|------------------------|
E|------------10----------| 8------ 7-- 5-- 6-- 7--|
ClassicalGuitarTablature http://classicalguitartablature.blogspot.com/
E|---------------- 3 3----| 5 5 5-- 5-------- 5-- 6|
B|-- 8---- 8-- 8 8 3 1----| 5 5 5-- 610--1010 8-- 6|
G|---- 7-- 7-- 5 5 3-- 1--| 5 5 5-- 510--10-- 7-- 5|
D| 7 7 7-- 6-- 5 5--------|----------10--1010------|
A|------------------------| 8-- 7-- 6--------------|
E| 8-- 7-- 6-- 5-- 3-- 0--|------------10-- 8-- 7--|
ClassicalGuitarTablature http://classicalguitartablature.blogspot.com/
E|-- 6-- 6-- 6-- 6 5-- 3--| 5 5---- 5 5------ 5-- 3|
B|-- 6-- 6-- 3-- 3 5-- 1--| 5 510-- 6-- 8-- 8 6----|
G|-- 5-- 5-- 3-- 3 5-- 1--| 5 5 9-- 7-- 7-- 5 5----|
D|------------------------|---- 7---------- 5------|
A|------------------------| 7----------------------|
E| 6-- 5-- 4-- 3-- 2-- 1--|---- 8-- 7-- 6-- 5-- 4--|
ClassicalGuitarTablature http://classicalguitartablature.blogspot.com/
E|---------------------- 2|------------------------|
B| 3------ 3 3------ 3-- 3|------ 3------ 3-- 3-- 1|
G| 4------ 4 4------ 4-- 2|-------------- 2-- 2-- 0|
D|-- 5------ 5---- 5------|-- 4------ 4------ 4----|
A|------------------------|------------------------|
E| 3-------------------- 2|---------------------- 3|
ClassicalGuitarTablature http://classicalguitartablature.blogspot.com/
E|------------------------| 2------ 2---------- 3--|
B|------ 1------------ 1--| 0---- 0-------- 0---- 3|
G|------ 0------------ 0--|---- 0------ 0----------|
D|-- 2------------ 2------|------------------------|
A|------------------------|------------------------|
E|------------ 3----------| 0----------------------|
ClassicalGuitarTablature http://classicalguitartablature.blogspot.com/
E| 2---- 2-- 0---- 2-- 3--| 2-------- 0-- 2-- 3----|
B|---- 3---- 3---- 3-- 3--| 3---- 3-- 3-- 3-- 3----|
G| 2 2---- 2 2---- 2-- 2--| 2-------- 2-- 2---- 2--|
D| 0----------------------|------------------------|
A|------------------------|------------------------|
E|------------------------|------------------------|
ClassicalGuitarTablature http://classicalguitartablature.blogspot.com/
E| 2----------------------|------------------------|
B| 3----------------------|------------------------|
G| 2----------------------|------------------------|
D|------------------------|------------------------|
A|------------------------|------------------------|
E|------------------------|------------------------|
ClassicalGuitarTablature http://classicalguitartablature.blogspot.com/

0 ความคิดเห็น:

แสดงความคิดเห็น