To celebrate the anniversary, I am giving you (finally...) : iPhone LickByNeck !!!!!!

Hotel California

Classic Eagles' hit fingerstyle solo guitar arrangement played in the key of Bm.


http://classicalguitartablature.blogspot.com/
Hotel California played in the key of Bm.
Classical Guitar Tablature http://classicalguitartablature.blogspot.com/
E|10----------10--12------14------|12----------10-- 9--------------|
B| 7----------10--12------14------|11----------11--11---------- 7--|
G|---- 7------ 9--11------12--12--|---- 9------11-- 9---------- 9--|
D|-------------------- 9----------|--------------------11------ 8--|
A|--------------------------------| 9------------------------------|
E| 7------ 9------10------12------|--------12------ 9------ 6------|
Classical Guitar Tablature http://classicalguitartablature.blogspot.com/
E| 9-------- 9--10------12------ 7|--------------------------------|
B| 5---- 5---- 710------12------ 9|------------10-- 9--------------|
G| 6-- 6------ 9-- 9 9--11--------|---- 7------ 9-- 7---- 7---- 4--|
D|---------------------------- 9--|---- 9------ 9------ 9------ 2--|
A|------------------------------ 7|--------------------------------|
E| 5------ 7------ 9----10--------|--------10------ 7------ 4------|
Classical Guitar Tablature http://classicalguitartablature.blogspot.com/
E| 7---------- 7-- 9------10------|--------------------------------|
B| 3---- 3---- 5-- 8---- 810----10|---------- 8---- 7--------------|
G| 4-- 4------ 7-- 9-- 9-- 9---- 7|---- 9------ 7-- 7------ 4-- 2--|
D|---------------------------- 7 7|---- 7------ 5-- 5------ 2-- 4--|
A|--------------------------------|--------------------------------|
E| 3------ 5------ 7------ 9------|10-- 9-- 8-- 7-- 6 5---- 3-- 2--|
Classical Guitar Tablature http://classicalguitartablature.blogspot.com/
E| 0------------------------------|---------------- 7------ 9------|
B| 0---------- 5-- 7------ 8------| 7----------11-- 7------11------|
G| 0-- 2-- 4-- 6-- 7-- 9-- 9------| 9------11-- 9-- 6-- 4-- 9-- 9--|
D|---- 1-- 2-- 5-- 5-- 8-- 9------| 8------ 9--11------ 2------ 8--|
A|---------------------------- 7--| 9-- 7------------------ 9------|
E| 0-- 2-- 3-- 6-- 7-- 9--10------|--------10-- 9 6-- 3-------- 8--|
Classical Guitar Tablature http://classicalguitartablature.blogspot.com/
E|--------------------------------|-- 2 2 2 2----------------------|
B|---- 7-- 7---------- 7------ 7--|---------- 5 5------------------|
G|------------ 9 9 9---------- 7--|---------------------------- 3 3|
D|------ 9-------- 9---------- 7--|------ 4------ 4------------ 2 2|
A|---- 9-------- 9 9--------------|---- 4-------- 4 4--------------|
E| 7------------------ 7----------| 2 2---------------- 2----------|
Classical Guitar Tablature http://classicalguitartablature.blogspot.com/
E|--------------------------------|-- 2 2 2 2 0-- 0 0--------------|
B|---- 7-- 7 5-- 5-- 7------------|-------- 0 0-- 0-- 3 0---- 0-- 0|
G|------------------ 7 6---- 6-- 6|-------- 1 1-- 1---- 1---- 1-- 1|
D|------ 7-------- 7-- 7---- 7-- 7|------ 2-------- 2--------------|
A|-- 7---------- 7 7--------------|---- 2-------- 2----------------|
E| 5------------------ 5----------| 0 0---------------- 0----------|
Classical Guitar Tablature http://classicalguitartablature.blogspot.com/
E|-------------------- 2----------|--------------------------------|
B|---- 7 7 7-- 5 5 5 3 3---- 3-- 3|------ 7------------------------|
G|---- 7 7 7-- 4 4 4 4 4---- 4-- 4|-- 7 7 7-- 9 7-------- 7-- 7-- 7|
D|------ 5-------- 5 5------------|------12--------12---- 7-- 7-- 7|
A|---- 5-------- 5-- 5------------|----12------12----12------------|
E| 3 3---------------- 3----------|1010--------------10---------- 0|
Classical Guitar Tablature http://classicalguitartablature.blogspot.com/
E| 0 0 0 0 0 0 0 0------ 2--------|-- 2 2 2 2---------- 2----------|
B| 0 0 0 0 0 0-- 0-- 3-- 0---- 0 0|-- 2 2 2 2-- 5 5 5-- 2---- 2-- 2|
G| 0 0 0 0 0 0-- 0-- 0-- 0---- 0 0|-- 3-------- 3 3 3-- 3---- 3-- 3|
D|---- 2-------- 2----------------|------ 4-------- 4-------- 2-- 2|
A|-- 2---------- 2-- 2------------|---- 4-------- 4-- 4------------|
E| 0------------------ 0----------| 2 2---------------- 2----------|
Classical Guitar Tablature http://classicalguitartablature.blogspot.com/
E|--------------------------------|-- 2 2 2 2----------------------|
B|---- 7-- 7 8-- 7---- 7------ 7 7|---------- 5 5------------------|
G|---------- 7-- 7---- 7------ 7 7|---------------------------- 3 3|
D|------ 9-------- 9-- 7------ 7 7|------ 4------ 4------------ 2 2|
A|---- 9-------- 9-- 9------------|---- 4-------- 4 4--------------|
E| 7------------------ 7----------| 2 2---------------- 2----------|
Classical Guitar Tablature http://classicalguitartablature.blogspot.com/
E|--------------------------------| 2 2-- 2 2 0-- 0 0--------------|
B|---- 5 5 5 5 5-- 5---- 7-- 7 7 7| 0 0---- 0 0-- 0-- 3 0---- 0-- 0|
G|---- 6 6 6 6 6 7 7---- 6-- 6 6 6| 1 1-- 1 1 1-- 1---- 1---- 1-- 1|
D|------ 7-------- 7---- 7-- 7 7 7|------ 2-------- 2--------------|
A|---- 7-------- 7-- 7------------|---- 2-------- 2----------------|
E| 5 5---------------- 5----------| 0 0---------------- 0----------|
Classical Guitar Tablature http://classicalguitartablature.blogspot.com/
E|-------------------- 2----------|--------------------------------|
B|---- 7 7 7-- 5 5 5 3 3---- 3-- 3|------ 7------------------------|
G|---- 7 7 7-- 4 4 4 4 4---- 4-- 4|-- 7 7 7-- 9 7-------- 7-- 7-- 7|
D|------ 5-------- 5 5------------|------12--------12---- 7-- 7-- 7|
A|---- 5-------- 5-- 5------------|----12------12----12------------|
E| 3 3---------------- 3----------|1010--------------10---------- 0|
Classical Guitar Tablature http://classicalguitartablature.blogspot.com/
E| 0 0 0 0 0 0 0 0------ 2--------|-- 2 2 2 2-- 5---------- 2------|
B| 0 0 0 0 0 0-- 0-- 3-- 0---- 0 0|-- 2 2 2 2-- 5-- 5------ 2------|
G| 0 0 0 0 0 0-- 0-- 0-- 0---- 0 0|-- 3-------- 3-- 3------ 3------|
D|---- 2-------- 2----------------|------ 4-------- 4--------------|
A|-- 2---------- 2-- 2------------|---- 4-------- 4-- 4---- 4 5----|
E| 0------------------ 0----------| 2 2---------------- 2------ 0 2|
Classical Guitar Tablature http://classicalguitartablature.blogspot.com/
E|---- 3 3-- 3-- 3 3-- 3-- 5-- 3 3|------------------------------ 2|
B|---- 3 3-- 3-- 3 3-- 3-- 3-- 3 3|----------------10-------- 7 7 0|
G|---- 4 4-- 4-- 4 4-- 4-- 4-- 4 4|--1111------ 7--11---- 7 7 7 7 0|
D|------ 5-------- 5--------------|------12---- 7--12---- 7 7 7 7--|
A|---- 5-------- 5-- 5------------|----12--------12--12------------|
E| 3 3---------------- 3----------|1010----------------10----------|
Classical Guitar Tablature http://classicalguitartablature.blogspot.com/
E|-- 0------------------------ 0 0|--------------------------------|
B|-- 0 0---------- 0---- 0---- 0 0| 5-- 3 3 2-- 2 3---- 3 5---- 7--|
G|-- 0------------ 0------ 0-- 0 0| 2-- 2 2 2 2-- 2-- 2-- 7---- 7--|
D|---- 2---------- 2------ 2------| 4-- 4 4-- 2------ 4-- 5---- 7--|
A|-- 2---------- 2-- 2------------| 2------ 4---- 5------ 7---- 9--|
E| 0 0---------------- 0----------|--------------------------------|
Classical Guitar Tablature http://classicalguitartablature.blogspot.com/
E| 3 3 3 3-- 3-- 3 3-- 3-- 5-- 3 3|------------------------------ 2|
B| 3 3 3 3-- 3-- 3 3-- 3-- 3-- 3 3|----------------10-------- 7 7 0|
G| 4 4 4 4-- 4-- 4 4-- 4-- 4-- 4 4|--1111------ 7--11---- 7 7 7 7 0|
D|------ 5-------- 5--------------|------12---- 7--12---- 7 7 7 7--|
A|---- 5-------- 5-- 5------------|----12--------12--12------------|
E| 3 3---------------- 3----------|1010----------------10----------|
Classical Guitar Tablature http://classicalguitartablature.blogspot.com/
E|-- 0------------------------ 3 3| 3-- 2 2------------------------|
B|-- 0 0---------- 0---- 0---- 0 0| 2-- 5 5------ 2---- 2-- 7-- 7 7|
G|-- 0------------ 0------ 0-- 0 0| 3-- 3 3------ 3---- 3-- 6-- 6--|
D|---- 2---------- 2------ 2------|------ 4------ 4---- 2-- 4-- 4--|
A|-- 2---------- 2-- 2------------|---- 4-------- 4-- 4------------|
E| 0 0---------------- 0----------| 2 2---------------- 2-- 6------|
Classical Guitar Tablature http://classicalguitartablature.blogspot.com/
E|--------------------------------| 2---- 2---- 2-- 6--------------|
B|------ 7---- 7---- 7---- 7------|-- 2---- 2---- 2 2------ 2-- 2--|
G|-- 7---- 7---- 7---- 7---- 7----|---- 3---- 3---- 3------ 3-- 3--|
D|---- 9---- 9---- 9---- 9---- 9--|------------------------ 4-- 4--|
A|--------------------------------|--------------------------------|
E| 7 7 7 7 7 7 7 7 7 7 7 7 7 7 7--| 2 2 2 2 2 2 2 2 2 2 2 2 2-- 2--|
Classical Guitar Tablature http://classicalguitartablature.blogspot.com/
E|------------------------------ 0|------ 0---- 0-- 4--------------|
B| 5---- 5---- 5-- 5---- 5--------| 0------ 0---- 0 0------ 0-- 0--|
G|-- 6---- 6-- 6---- 6---- 6------|-- 1------ 1---- 1------ 1-- 1--|
D|---- 7---- 7---- 7-- 7---- 7----|------------------------ 2-- 2--|
A|--------------------------------|--------------------------------|
E| 5 5 5 5 5 5 5 5 5 5 5 5 5 5-- 0|-- 0 0 0 0 0 0 0 0 0 0 0 0-- 0--|
Classical Guitar Tablature http://classicalguitartablature.blogspot.com/
E|--------------------------------|---------------- 2--------------|
B| 3---- 3---- 3---- 3---- 3---- 3|------ 3---- 3-- 3------ 3-- 3--|
G|-- 4---- 4---- 4---- 4---- 4----| 2------ 2---- 2 2------ 2-- 2--|
D|---- 5---- 5---- 5---- 5---- 5--|---- 4---- 4---- 4------ 4-- 4--|
A|------------------------------ 5|-- 5 5 5 5 5 5 5 5 5 5 5 5-- 5--|
E| 3 3 3 3 3 3 3 3 3 3 3 3 3 3 3--|--------------------------------|
Classical Guitar Tablature http://classicalguitartablature.blogspot.com/
E|--------------------------------|--------------------------------|
B| 0---- 0---- 0---- 0---- 0---- 2| 2 2 5 5 5 7 7 710--10101010-- 3|
G|-- 0---- 0---- 0---- 0---- 0-- 3| 3 3 4 4 4 6 6 6 9-- 9-- 9 9-- 4|
D|---- 2---- 2---- 2---- 2---- 2 2| 2 2 2 2 2 4 4 4 9-- 9 8 8 8-- 4|
A|--------------------------------|--------------------------------|
E| 0 0 0 0 0 0 0 0 0 0 0 0 0 0 0 2|-- 2 2 4 4 4 6 6 9-- 9 9 8 8----|
Classical Guitar Tablature http://classicalguitartablature.blogspot.com/
E|--------------------------------|--------------------------------|
B| 3-- 3 3------------------------|--------------------------------|
G| 4 4-- 4------------------------|--------------------------------|
D| 4 4-- 4------------------------|--------------------------------|
A| 2 2 2 2------------------------|--------------------------------|
E|--------------------------------|--------------------------------|

0 ความคิดเห็น:

แสดงความคิดเห็น