To celebrate the anniversary, I am giving you (finally...) : iPhone LickByNeck !!!!!!

How Deep Is Your Love

Classic The Bee Gees' hit fingerstyle chord melody guitar arrangement played in the key of D.


http://classicalguitartablature.blogspot.com/
How Deep Is Your Love played in the key of D.
Classical Guitar Tablature http://classicalguitartablature.blogspot.com/
E|-------- 2----------------------|-------------------- 5----------|
B|-------- 3-- 3 5---- 5------ 0--|---- 0------ 3------ 3----------|
G|------------ 2 2---- 2------ 0--|---- 0------ 4------------------|
D|-- 4---------------- 2------ 0--|---- 0------ 5------------------|
A| 5------------------------------|------------------------------ 5|
E|---------------- 2-- 2------ 0--|------------ 5---------- 5------|
Classical Guitar Tablature http://classicalguitartablature.blogspot.com/
E|------ 2------------------------|--------------------------------|
B|-- 3-- 3---- 3 5---- 5------ 0--|---- 2------ 3-------- 3-- 5----|
G|------ 2-- 2---- 2 2-------- 0--|---- 2------ 4---- 2---- 0 3----|
D|------------ 4 2-- 2-------- 0--|---- 2------ 2---- 2-- 0-- 5----|
A|--------------------------------|---------------------------- 4--|
E|-2------------ 2---- 2------ 0--|---- 2------ 3---- 2---- 0------|
Classical Guitar Tablature http://classicalguitartablature.blogspot.com/
E| 2------ 2----------------------|--------------------------------|
B| 2------ 3-- 3-- 5-- 5------ 3--|-------------- 4-- 5-- 7-- 8----|
G| 2---- 4---- 4-- 2-- 2------ 0--|------ 1------ 2-- 4-- 6-- 7----|
D| 4-------------- 2-- 2------ 0--|-- 0-------- 0 4-- 2-- 4-- 5----|
A| 5------------------------------|--------------------------------|
E|------ 4-------- 3-- 2-- 1------| 0------ 1------ 2-- 4 6------ 7|
Classical Guitar Tablature http://classicalguitartablature.blogspot.com/
E|------------------ 2------------|---------------------- 2-- 3-- 5|
B|------ 8-- 5-- 7-- 3------ 5----|---------------------- 0-- 3-- 7|
G|------ 7-- 7-- 7-- 4------ 2----|---- 2 2-- 2-------- 0---- 3----|
D|-- 5-- 5-- 5-- 7---------- 2----|---- 2 2-- 0--------------------|
A|--------------------------------|---------------------------- 6--|
E|------ 6------ 5------ 4------ 3|------ 2---- 1-- 0--------------|
Classical Guitar Tablature http://classicalguitartablature.blogspot.com/
E|---- 5 5------------ 7----------|---------------------------- 2--|
B|---- 7 7-- 7--10----------------|10-- 7-- 5-- 3------ 3-- 5-- 5--|
G| 6-- 6 5-- 5-- 7------------ 7--| 9-- 9-- 6-- 4------ 4-- 2-- 2--|
D|------------ 7 9------------ 9--| 7-- 7-- 7-- 4------ 4-- 2------|
A| 5---- 6------ 7------ 8--------| 9------ 7------ 5------ 4------|
E|--------------------------------|--------------------------------|
Classical Guitar Tablature http://classicalguitartablature.blogspot.com/
E|--------------------------------|--------------------------------|
B| 8-- 8-- 8------ 7-- 7------ 5--|------------------------ 3-- 3--|
G| 7-- 7-- 9-- 9-- 7-- 7------ 5--|---- 5------ 6------ 5-- 5-- 5--|
D| 8-- 8 7-------- 5-- 5------ 5--|---- 5------ 5------ 4-- 4-- 4--|
A|--------------------------------| 7------ 6------ 5--------------|
E| 8-- 8 7-------- 6------ 5------|------------------------ 4------|
Classical Guitar Tablature http://classicalguitartablature.blogspot.com/
E| 7-- 7------ 7------10-- 7------|12-- 9-- 7---------- 7-- 9--10--|
B| 7-- 7------ 7------ 7-- 7------|10--10-- 7--10------ 9-- 9-- 8--|
G| 7---------- 7------ 7-- 7------| 9-- 9-- 6-- 9------ 7-- 7-- 7--|
D|---------------------------- 7--|------------ 7------------------|
A|10------ 9------ 7--------------|-------- 7------ 9-- 8----------|
E|------------------------10------| 9------------------------------|
Classical Guitar Tablature http://classicalguitartablature.blogspot.com/
E|---- 7---- 5--------------------|------------------------------ 2|
B|---- 8---- 7----12----10---- 7--|10-- 7------ 5-------- 5------ 3|
G|---- 7---- 5----12---- 9---- 9--| 9-- 7------ 7---- 7---------- 4|
D|----------------12---- 7---- 7--| 7-- 5------ 5---- 5------------|
A| 7-------- 6--------------------|--------------------------------|
E|----------------10---- 9--------| 8-- 7------ 6---- 5---------- 4|
Classical Guitar Tablature http://classicalguitartablature.blogspot.com/
E|-- 5---------- 7----10------14--|----14------1414----14--14--14--|
B|-- 5----------10---- 8------12--|----12------12--12--10--12--12--|
G|---- 4-------- 7---- 8------12--|----12------11--11--11--12--11--|
D|---- 2--------------------------|----12--------------------------|
A|-------------- 9-------- 8------|----12------11--10-- 9----------|
E|-------- 3-------------------- 0|------------------------12--10--|
Classical Guitar Tablature http://classicalguitartablature.blogspot.com/
E|--------------------------------|--------------------------------|
B|-------- 3-- 2------------------|--------------------------------|
G| 2-- 2------ 2---- 4-------- 2--|---- 7---- 6------ 4---------- 2|
D| 4-- 4------ 2---- 2-------- 4--|---- 5---- 4-------- 3------ 3 2|
A| 5---------- 4---------------- 3|--------------------------------|
E|--------------------------------|------ 6------ 5-------- 4------|
Classical Guitar Tablature http://classicalguitartablature.blogspot.com/
E|---------- 2--------------------|------------------------------ 5|
B|------ 3------------ 8------ 7--|---- 5---------- 7---- 8------ 7|
G|---- 4 2------------ 7------ 5--|---- 4------ 4-- 7---- 7------ 7|
D|---- 4 2------------ 5------ 7--|---- 5------ 5------ 5------ 5--|
A|-------------- 7-------- 6------| 5------ 4----------------------|
E| 3---- 2------------------------|---------------- 7------ 6---- 5|
Classical Guitar Tablature http://classicalguitartablature.blogspot.com/
E|---- 5 5-- 2------ 7-------- 5--|---------------- 5-- 7---- 8----|
B|-- 7-- 3-- 3----10---- 7---- 2--|---- 2---------- 5--------10----|
G|---- 7-- 2-- 2-- 7---- 6---- 2--|---- 2------ 2 6------------ 9 5|
D|---------------- 9---- 7--------|---- 2------ 2------------------|
A|-------------- 7-------- 5------| 4------ 2------------------10 7|
E|-------- 2----------------------|-------------- 5----------------|
Classical Guitar Tablature http://classicalguitartablature.blogspot.com/
E| 5-------------------------- 7--| 8------ 8----------------------|
B| 8----------------------10------| 7-- 7--10----------10------ 8--|
G|-------------------- 9-- 9------| 5-- 5-- 8-- 8--11-- 9------ 7--|
D|---- 5------ 5------ 7-- 7------|---- 7------10--10-- 7------ 8--|
A|-------- 5----------------------|------ 9------------------------|
E|---------------- 8------ 7---- 5|----------------11------ 9------|
Classical Guitar Tablature http://classicalguitartablature.blogspot.com/
E|---------------------- 5------ 6|------------ 6-- 5---------- 2--|
B|------------------ 8-- 8------ 5|------------ 5-- 8-- 8------ 2--|
G|---- 7------ 7---- 7-- 7------ 3|-- 3-------- 3-- 7-- 7------ 2--|
D|---- 8------ 5---- 5-------- 5--|-- 3---------------- 8----------|
A|--------------------------------|--------------------------------|
E| 8---- 7------ 6------ 5--------| 3------ 5------ 6------ 8------|
Classical Guitar Tablature http://classicalguitartablature.blogspot.com/
E|------ 2------------------------|-------------------- 5----------|
B|-------- 2-- 3 5---- 5------ 0--|------------ 3------------------|
G|---- 2-- 2-- 2 2---- 2------ 0--|-------- 0-- 4------------------|
D|------------ 4-- 2-- 2----------|---- 0------ 5---------- 5------|
A| 5------------------------------|--------------------------------|
E|---------------- 2---------- 0--|------------ 5------------------|
Classical Guitar Tablature http://classicalguitartablature.blogspot.com/
E|--------------------------------|--------------------------------|
B|-------- 7------ 5-- 5------ 3--|---- 3---- 3---------- 3-- 5----|
G|-------- 7-- 7-- 5-- 5------ 3--|---- 3------ 2---- 2-- 1-- 6----|
D|---- 7------ 5-- 5-- 4------ 2--|---- 2------ 2---- 2-- 0-- 5----|
A|--------------------------------|---------------------------- 6--|
E| 7---------- 6-- 5-- 4------ 3--|------------ 2---- 1---- 0------|
Classical Guitar Tablature http://classicalguitartablature.blogspot.com/
E|--------------------------------|--------------------------------|
B|---------- 7--------------------|--------------------------------|
G|-------- 6----------------------|--------------------------------|
D|-------- 4----------------------|--------------------------------|
A|------ 5------------------------|--------------------------------|
E|--------------------------------|--------------------------------|

0 ความคิดเห็น:

แสดงความคิดเห็น