To celebrate the anniversary, I am giving you (finally...) : iPhone LickByNeck !!!!!!

I could write a book

Crooner's favorite fingerstyle solo guitar arrangement played in the key of C


http://classicalguitartablature.blogspot.com/
I Could Write A Book played in the key of C.

E|--------------------------------|-------------- 7---- 7-------- 5|
B|-------------- 5---- 6------ 8--|---- 8-------- 5---- 5-------- 6|
G|---------------------------- 9--|---- 9-------- 5---- 5-------- 5|
D|---------------------------- 9--|---- 9--------------------------|
A|--------------------------------|------------------------ 7---- 5|
E|---------------------------- 8--|------ 7------ 5----------------|
http://classicalguitartablature.blogspot.com/
E|--------------------------------|--------------------------------|
B|---- 8------ 5------ 3-------- 5|---- 5--------------------------|
G|---- 5------ 4------ 0----------| 4-- 4-------------- 5----------|
D|---- 7------ 3------ 3-------- 5|-------------------- 5----------|
A|-------------------- 2----------| 3---------------------- 4---- 5|
E|------------ 3------------------|-------- 4---- 5----------------|
http://classicalguitartablature.blogspot.com/
E|--------------------------------|---- 3------ 0------------------|
B|---- 8-------- 5---- 3----------| 5-- 5------ 1------ 3------ 5--|
G|---- 5-------- 4---- 4----------| 4---------- 2------ 2------ 7--|
D|---- 7-------- 3---- 3----------| 5------------------ 3------ 5--|
A|--------------------------------| 3-------------------------- 7--|
E|-------------- 3----------------|------------ 1------------------|
http://classicalguitartablature.blogspot.com/
E|---- 8--------------------------|--------------------------------|
B|---- 5-------- 5---- 5------ 8--|---- 8-- 8----10----------------|
G|-------------- 6---- 6------ 5--|---- 5---- 7-- 9----------------|
D|-------------- 5---- 5------ 7--|---- 7---- 9--10----------------|
A|---------------------------- 5--|-------- 7 7-- 8----------------|
E|------------ 5------------------|---------------------- 2---- 0--|
http://classicalguitartablature.blogspot.com/
E|---------------- 5---- 7--------| 8---- 8------ 8---- 8------ 8--|
B|---- 1---------- 5------ 6------| 8---- 8------ 7---- 7------ 6--|
G|---- 2---------- 4------ 7------| 5-------- 5-- 5---- 5------ 5--|
D|---- 3-------- 3-------- 6------|--------------------------------|
A|--------------------------------| 7------------ 6------------ 5--|
E| 3------------------------------|--------------------------------|
http://classicalguitartablature.blogspot.com/
E|----10------10------------------|--------------------------------|
B|----10------10------12----------|10------10----------10------ 8--|
G|----10------10--------10--------| 9------ 9------------ 8---- 7--|
D|----10------------1212----------|10------10---------- 7------ 9--|
A|--------------10----------------| 9-------------------------- 7--|
E|--------------------------------|-------------- 7----------------|
http://classicalguitartablature.blogspot.com/
E|--------------------------------|--------------------------------|
B|---- 8-------- 5---- 7------ 8--|---- 8 8------ 8---- 8------ 8--|
G|------ 7-------------------- 7--|-------- 7------ 6-- 6------ 5--|
D|------ 9-------------------- 5--|------ 5------ 5---- 5------ 5--|
A|--------------------------------|--------------------------------|
E|---------------------------- 7--|---------------- 6-- 6------ 5--|
http://classicalguitartablature.blogspot.com/
E|---- 5--------------------------|--------------------------------|
B|---- 8-------------- 7-------- 8|-------- 8----------------------|
G|-------------------- 5-------- 5|-------- 5---------- 6-- 5-- 4--|
D|------ 5-------- 7-- 7----------| 7------ 7---------- 5-- 4-- 3--|
A|-------------- 5----------------| 5------------------------------|
E|--------------------------------|-------------------- 5-- 4-- 3--|
http://classicalguitartablature.blogspot.com/
E|--------------------------------|-------------- 7---- 7-------- 5|
B|---- 3---------- 5-- 6-------- 8|-------------- 5---- 5-------- 6|
G|---- 4------------------------ 9|---- 9-------- 5---- 5-------- 5|
D|---- 3------------------------ 9|---- 9-------- 5----------------|
A|--------------------------------|---------------------- 7------ 5|
E|------------------------------ 8|-------- 7---- 5----------------|
http://classicalguitartablature.blogspot.com/
E|--------------------------------|--------------------------------|
B|---- 8------ 5------ 3----------| 5-- 5-------------- 3----------|
G|---- 5------ 4------ 0----------| 4---- 3------------ 5----------|
D|---- 7------ 3------ 3----------| 5-- 5-------------- 5----------|
A|-------------------- 2----------| 3---------------------- 4---- 5|
E|------------ 3------------------|-------- 4---- 5----------------|
http://classicalguitartablature.blogspot.com/
E|--------------------------------|---- 3------ 0------------------|
B|---- 8-------- 5---- 3------ 5--|---- 5------ 1------ 3------ 5--|
G|---- 5---------- 4-- 4------ 4--|------------ 2------ 2------ 7--|
D|---- 7-------- 3---- 3------ 5--|-------------------- 3------ 5--|
A|---------------------------- 3--|---------------------------- 7--|
E|-------------- 3----------------|------------ 1------------------|
http://classicalguitartablature.blogspot.com/
E|---- 8-------- 8----------------|------ 0------------------------|
B|---- 5-------- 5---- 5------ 8--|---- 8 0------ 1---- 1------ 1--|
G|-------------- 5---- 5------ 5--|---- 5 0------ 2---- 2------ 2--|
D|---------------------------- 7--|---- 7 0------ 3---- 2------ 3--|
A|---------------------------- 5--|--------------------------------|
E|-------------- 5----------------|------ 0------ 1---- 2------ 3--|
http://classicalguitartablature.blogspot.com/
E|---------------- 5-- 7-------- 8|------ 8------ 8---- 8---- 8----|
B|-------- 1------ 5-- 6-------- 8|------ 8------ 7---- 7---- 6----|
G|-------- 2------ 4-- 7-------- 5|-------- 5---- 5---- 5---- 5----|
D|-------- 3------ 3-- 6----------|--------------------------------|
A|------------------------------ 7|-------------- 6------------ 5--|
E|--------------------------------|--------------------------------|
http://classicalguitartablature.blogspot.com/
E|--10------10--------------------|--------------------------------|
B|--10------10--------12--------11|--------------11----11----------|
G|--10------10--------10----------|10------------ 9---- 9----------|
D|----10--------------12----------| 8-- 8---------- 8--11----------|
A|--------------10----------------|10------------------ 9----------|
E|--------------------------------|--------10---- 8----------------|
http://classicalguitartablature.blogspot.com/
E|--------------------------------|--------------------------------|
B|10----10------ 8---- 6------ 5--|---- 5-------- 5---- 5-------- 3|
G| 9------ 9---- 7---- 7------ 7--|---- 7-------- 6---- 6-------- 5|
D|10----10------ 6---- 6------ 5--|---- 5-------- 5---- 5-------- 3|
A| 8-------------------------- 7--|-------------------- 6-------- 5|
E|-------------- 6----------------|------ 7------ 5----------------|
http://classicalguitartablature.blogspot.com/
E|------ 8------------ 7----------| 8------------------------ 8----|
B|------ 6------------ 6----------| 8------------ 8---------- 6----|
G|------ 7------------ 7----------| 7------------ 7---------- 5----|
D|------ 7-------- 5--------------|-------------- 6----------------|
A|--------------------------------| 7-------------------------- 5--|
E|--------------------------------|-------------- 6----------------|
http://classicalguitartablature.blogspot.com/
E|------------------------------ 3|--------------------------------|
B|------ 6------------------------|---- 3--------------------------|
G|------ 5---------------------- 2|--------------------------------|
D|------ 4------------------------|--------------------------------|
A|--------------------------------| 3------------------------------|
E|------ 4------------------------|--------------------------------|
http://classicalguitartablature.blogspot.com/

0 ความคิดเห็น:

แสดงความคิดเห็น