To celebrate the anniversary, I am giving you (finally...) : iPhone LickByNeck !!!!!!

I Say A Little Prayer

Classic Burt Bacharach's hit fingerstyle chord melody guitar arrangement played in the key of A.


http://classicalguitartablature.blogspot.com/
I Say A Little Prayer played in the key of A.
Classical Guitar Tablature http://classicalguitartablature.blogspot.com/
E| 9------------------------------|---------------------------- 7--|
B| 5------ 5---------- 5---- 5-- 7|-------------------- 710--------|
G| 6------ 6---------- 4---- 4-- 7|-------- 9------ 9------ 7------|
D|-------------------- 4---- 4-- 7|-------- 9------ 9------ 7------|
A|-------------- 4----------------| 7------------------------------|
E| 5------------------------------|--------10------ 9------ 7------|
Classical Guitar Tablature http://classicalguitartablature.blogspot.com/
E| 9------------------------------|---------------------------- 7--|
B| 5------ 5---------- 5---- 5-- 7|-------------------- 710--------|
G| 6------ 6---------- 4---- 4----| 7------ 9------ 9------ 7------|
D|-------------------- 4---- 4----| 7------ 9------ 9------ 7------|
A|-------------- 4----------------| 7------------------------------|
E| 5------------------------------|--------10------ 9------ 7------|
Classical Guitar Tablature http://classicalguitartablature.blogspot.com/
E| 9------------------------------|---------------------------- 7--|
B| 5------ 5---------- 5---- 5-- 7|-------------------- 710--------|
G| 6------ 6---------- 4---- 4----| 7------ 9------ 9------ 7------|
D|-------------------- 4---- 4----| 7------ 9------ 9------ 7------|
A|-------------- 4----------------| 7------------------------------|
E| 5------------------------------|--------10------ 9------ 7------|
Classical Guitar Tablature http://classicalguitartablature.blogspot.com/
E| 9------------------------------|--------------------------------|
B| 5------------------ 3------ 3--|---- 5-------------- 0------ 0--|
G| 6------ 6---------- 4------ 4--|---- 4------ 4------ 1------ 1--|
D|-------------------- 4------ 4--|---- 3------ 3------ 0------ 0--|
A|--------------------------------|--------------------------------|
E| 5-------------- 4--------------| 3-------------- 1--------------|
Classical Guitar Tablature http://classicalguitartablature.blogspot.com/
E|--------------------------------|---- 5--------------------------|
B|------------------------ 2 3----|---- 3------ 3------ 7------ 7--|
G|-------- 2---- 2-- 4-- 2-- 2----|---- 2------ 2------ 4------ 6--|
D|-------- 2------ 2-------- 4----|------------ 4------ 7------ 7--|
A|---------------- 4--------------| 2-------------- 5---------- 6--|
E| 2------------------------------|--------------------------------|
Classical Guitar Tablature http://classicalguitartablature.blogspot.com/
E|---------------------- 9--------|-------------- 7------ 5--------|
B|----10------1010--12--10--12----|--10------------ 5---- 5---- 6 7|
G|---- 7------ 7 9---------- 9----|-- 9-------- 9-------------- 6 6|
D|---- 9------ 9 9---------- 9----|-- 7------ 7-------- 7------ 5 7|
A| 7------------------------------|---------------------------- 6 5|
E|--------------10----------------| 9------ 7------ 5--------------|
Classical Guitar Tablature http://classicalguitartablature.blogspot.com/
E|-------------------- 5----------| 4------------------------------|
B|---- 7 7---- 7-- 7--------------| 6-------------- 6--------------|
G|---- 6 6---- 6-- 6---------- 6--| 4-- 4------ 6-- 4---------- 6--|
D|---- 7-- 7-- 7-- 7---------- 7--|---- 6------ 6------ 6------ 6--|
A|-------- 4----------------------|---------------- 4------ 8------|
E|---------------- 7------ 5------| 4------ 7----------------------|
Classical Guitar Tablature http://classicalguitartablature.blogspot.com/
E|--------------------------------|---- 5--------------------------|
B|------------------------ 2-- 3--|---- 7--------------------------|
G| 6-------------- 2-- 4-- 3-- 2--|---- 7------ 4---- 2---- 2------|
D| 7---------- 7-- 2------ 2-- 4--|------------ 2------ 1----------|
A| 9------ 7------ 4------ 3------| 2------------------------------|
E|--------------------------------|-------- 5---- 4-------- 2-- 1--|
Classical Guitar Tablature http://classicalguitartablature.blogspot.com/
E|------------------------ 9---- 7|---- 5---------- 7------ 5------|
B| 7------10------10--12-- 7---- 5|---- 3------ 5-- 7------ 5-- 5--|
G| 7------ 9------ 9-- 9-- 7---- 4|---- 2------ 4-- 6------ 4-- 4--|
D| 7------ 9------ 9-- 9----------|------------ 4-------------- 4--|
A|--------------------------------|---------------- 6------ 5-- 4--|
E| 0------10------ 9-- 9-- 7---- 4|------ 2---- 0------------------|
Classical Guitar Tablature http://classicalguitartablature.blogspot.com/
E|-------------------- 5----------| 4-------------------------- 4--|
B| 7-- 7-- 7-- 7-- 7--------------|---- 0---------------------- 7--|
G| 7-- 7-- 6-- 6-- 7------ 4------| 1------ 6------------------ 6--|
D| 7-- 7-- 5-- 5-------------- 4--|---- 0------ 6------ 6----------|
A|--------------------------------|-------- 8------ 7------ 6------|
E| 7------ 6-- 6-- 5---- 4--------| 2------------------------------|
Classical Guitar Tablature http://classicalguitartablature.blogspot.com/
E| 5-- 5------ 5 7---- 7---- 7----|--------12-- 9------ 7-- 9-- 9--|
B| 7-- 7------ 7 5---- 5------ 512|----12--10--10------ 9-- 7-- 7--|
G| 6-- 6------ 6-- 4-- 4------ 4 9|---- 9--10-- 9------ 7-- 6-- 6--|
D|--------------------------------| 9-- 9--------------------------|
A| 5------ 5------ 5---- 5--------|--------10------ 9-- 8-- 7-- 6--|
E|--------------------------------| 9-- 9--------------------------|
Classical Guitar Tablature http://classicalguitartablature.blogspot.com/
E|10-- 9------ 7-- 5-- 5---- 5----|------------ 7-- 7-- 7--12-- 9--|
B|12--10------ 8-- 7-- 7----------|12--12------ 7--10--10--10--10--|
G|11-- 9------ 7-- 6-- 6---- 6----| 9-- 9------ 7-- 7-- 7--11--11--|
D|--------------------------------| 9-- 9--------------------------|
A|--------------------------------|10------ 9------ 8--------------|
E|10-- 9-- 7------ 5------ 4------|------------------------12------|
Classical Guitar Tablature http://classicalguitartablature.blogspot.com/
E|-------- 9-- 910---- 9-- 7---- 5|---- 5------ 5 7---- 7------ 7--|
B|----12-- 9-- 9 9---- 7-- 6---- 2|---- 2------ 5-- 5-- 5------ 5--|
G|----11--10--10-- 7-- 6-- 4------| 2-- 2------ 4-- 4-- 4------ 6--|
D|---- 9--------------------------|--------------------------------|
A|--------------------------------|--------------------------------|
E|11--10-- 9------ 7-- 5-- 4-- 3--| 2------ 3------ 4------ 5------|
Classical Guitar Tablature http://classicalguitartablature.blogspot.com/
E| 7-- 7------12-- 9--------------| 9------ 9------10-- 9----------|
B| 5-- 5------10--12------12------|10------ 9------12--12------12--|
G| 6-- 6------ 9--11------11------| 9---------- 7--11----11----10--|
D|-------------------- 9------ 9--|----11----------------------12--|
A|--------------------------------|-------- 8------12----11----10--|
E| 7------ 9------10------11------|12------------------------------|
Classical Guitar Tablature http://classicalguitartablature.blogspot.com/
E|---------- 5---- 7---- 5---- 7--| 9------------------------------|
B|10--10---- 5---- 7---- 7---- 5--| 6---------------- 7---------- 5|
G| 7-- 7---- 6---- 6---- 6---- 4--|---------- 6-------------- 6----|
D| 7-- 7--------------------------|------ 6-------------- 4--------|
A| 9-- 8---- 7---- 6---- 5---- 4--|--------------------------------|
E|--------------------------------| 7------------ 5----------------|
Classical Guitar Tablature http://classicalguitartablature.blogspot.com/
E|--------------------------------|------------ 5-- 5 2---- 5-- 7--|
B|------ 5------------ 5------ 5--| 2---------- 5-- 2-- 2-- 3-- 7--|
G| 4---- 4------------ 4------ 4--| 2---------- 4-- 2-- 2-- 3-- 7--|
D| 4---- 4------------ 3------ 3--| 2-------------- 2--------------|
A|--------------------------------|---------------- 4------ 3------|
E| 4-------------- 3--------------| 2------ 5----------------------|
Classical Guitar Tablature http://classicalguitartablature.blogspot.com/
E|--------------------------------|-------- 2------ 5-- 7 9--------|
B|---- 7--------------------------|-------- 3------ 7-- 7--12------|
G|---- 7------ 7-- 7------ 4------| 4------ 2------ 6-- 6--11------|
D|---- 5-------------- 7------ 4--|---- 2---------------------- 9--|
A|--------------------------------|---------------- 6--------------|
E| 7------ 6------ 5------ 4------| 3------ 2-- 0----------10------|
Classical Guitar Tablature http://classicalguitartablature.blogspot.com/
E|10------10----------10------10--|------ 9------ 9---- 7----------|
B|10------10---------- 8------ 8--|------ 9------ 7----10--10------|
G| 9------ 9---------- 8------ 8--|------ 8------ 7---- 7-- 7-- 9--|
D|--------------------------------|---- 7------------------ 7-- 9--|
A|---------------- 8--------------|------ 8-------- 7-- 8-- 9--11--|
E| 8---------------------------- 7|--------------------------------|
Classical Guitar Tablature http://classicalguitartablature.blogspot.com/
E| 9------ 9----------------------|---------------------------- 7--|
B|10------10---------- 7------ 7--| 7------------------ 710--------|
G| 9------ 9---------- 7------ 7--| 7---------- 9-- 9------ 7------|
D|-------------------- 7------ 7--| 7---------- 9-- 9------ 7------|
A|12-------------- 9--------------| 7------------------------------|
E|--------------------------------|--------10------ 9------ 7------|
Classical Guitar Tablature http://classicalguitartablature.blogspot.com/
E| 9------ 9----------------------|---------------------------- 7--|
B| 5------ 5----------------------|------------------ 7--10---- 8--|
G| 6------ 6---------- 9------ 9--|12------12------ 9 9---- 7-- 7--|
D|-------------------- 7------ 7--|12------11------ 9 8---- 7------|
A|--------------------------------|--------------------------------|
E| 5------------ 9----------------|12------11------ 9-- 8-- 7-- 6--|
Classical Guitar Tablature http://classicalguitartablature.blogspot.com/
E| 9------ 9----------------------|--------------------------------|
B| 5------------------ 2----------|---------------- 5------ 7------|
G| 6------ 6---------- 4------ 4--|---- 4------ 4-- 2---- 6------ 6|
D|-------------------- 4------ 4--|---- 3---------- 2---- 7--------|
A|--------------------------------|-------------------- 7-------- 6|
E| 5-------------- 4--------------| 3------------ 2----------------|
Classical Guitar Tablature http://classicalguitartablature.blogspot.com/
E| 5---------- 7------------------|-------- 9----------------------|
B| 7---------- 5------------------|------10------------------------|
G|---------- 5--------------------|---- 9--------------------------|
D|--------------------------------|--------------------------------|
A|-------- 5----------------------|--------------------------------|
E|--------------------------------|-- 9----------------------------|
Classical Guitar Tablature http://classicalguitartablature.blogspot.com/
E|--------------------------------|--------------------------------|
B|--------------------------------|--------------------------------|
G|--------------------------------|--------------------------------|
D|--------------------------------|--------------------------------|
A|--------------------------------|--------------------------------|
E|--------------------------------|--------------------------------|

0 ความคิดเห็น:

แสดงความคิดเห็น