To celebrate the anniversary, I am giving you (finally...) : iPhone LickByNeck !!!!!!

I'll Never Fall In Love Again

Classic Burt Bacharach's hit fingerstyle solo guitar arrangement played in the key of D.


http://classicalguitartablature.blogspot.com/
I'll Never Fall In Love Again played in the key of D.
Classical Guitar Tablature http://classicalguitartablature.blogspot.com/
E|------ 5------------------------|-- 7----------------------------|
B|------ 7--10------10------10--10|---------- 8------ 7------ 5----|
G|------ 6-- 7-------- 7---- 7-- 7|---------- 7------ 7------ 7----|
D|-- 7-------- 7---- 7------ 7-- 9|------ 9-- 7---- 7 5------ 5----|
A| 5-------------- 9------------10|---------- 9---------- 7------ 5|
E|--------------------------------|--------------------------------|
Classical Guitar Tablature http://classicalguitartablature.blogspot.com/
E|------ 5------------------------|10------------------------------|
B|------ 7--10--------10----10----|10--10------ 8------ 7------ 5--|
G|------ 6-- 7-------- 7------ 7--| 9-- 9------ 7------ 7------ 7--|
D|-- 7-------- 7------ 7------ 7--|------ 9---- 7------ 5------ 5--|
A|-------------- 9--------------10|---------------- 9------ 7------|
E|--------------------------------|--------------------------------|
Classical Guitar Tablature http://classicalguitartablature.blogspot.com/
E|---- 0-- 2------------ 2--------|--------------------------------|
B| 3-- 3-- 3---------- 3------ 3--|---- 3-- 3------ 3------ 5------|
G| 2-- 2-- 2---------- 3------ 3--|---- 0-- 0------ 4------ 6------|
D|--------------------------------|---- 0-- 0------ 5------ 7------|
A| 5---------- 5-- 3------ 3------| 2---------- 1-- 0------ 0------|
E|--------------------------------|--------------------------------|
Classical Guitar Tablature http://classicalguitartablature.blogspot.com/
E| 2------ 2---- 5------ 5--------|--------------------------------|
B| 3-------- 2-- 2---- 3 3------ 3|------ 3-- 7-------------- 7----|
G| 2-------- 2-- 2---- 3 3------ 2|------ 4-- 5-------------- 5-- 4|
D| 4-------- 2-------- 3-------- 4|------ 3-- 7-------------- 4-- 4|
A| 5------------------ 3---- 3-- 2|-- 3-- 4------ 5----------------|
E|---- 0-- 1-- 2------------------|------------------ 5-- 4--------|
Classical Guitar Tablature http://classicalguitartablature.blogspot.com/
E|---------- 3---------- 3--------|--------------------------------|
B|---------- 3---------- 3---- 3 8|----10------ 7-------- 5------ 2|
G|-- 4-- 4-- 3---------- 2---- 2 7|---- 9------ 7-------- 4---- 2 2|
D|-- 4-- 4-- 2---------------- 1 9|---- 7------ 5-------- 5---- 2 2|
A|------ 5------ 3----------------| 7------------------------------|
E| 3------------------ 3 1--------|---- 9-- 8------ 7-- 6-- 5-- 3 2|
Classical Guitar Tablature http://classicalguitartablature.blogspot.com/
E|---------------- 5------ 5------| 5-- 2--------------------------|
B|---- 2-- 2-- 2-- 2------ 3------| 4-- 5------ 8------10--------12|
G|---- 2-- 2-- 2-- 2------ 3------| 2-- 2------ 5------ 8------ 8 0|
D|---- 2-- 2-- 2------ 2------ 3--| 2---------- 7------ 9------ 7--|
A|---------------- 4------ 3------| 2-- 4---------- 6------ 9-- 8--|
E|-------- 0----------------------|------------------------------ 0|
Classical Guitar Tablature http://classicalguitartablature.blogspot.com/
E|--------------------------------|--------------------------------|
B|--------------------------------| 8-- 7 8---- 7-- 8------ 5------|
G|------------11---- 9------ 9----| 9-- 9 7---- 7-- 7------ 4------|
D|---- 0------ 9------ 9---- 7----| 7---- 5---- 5 5-------- 4---- 3|
A|--------------------------------|--------------------------------|
E|------11--------10------ 9------| 8------ 7-- 6-- 5------ 4---- 3|
Classical Guitar Tablature http://classicalguitartablature.blogspot.com/
E|--------------------------------|-------------------- 5----------|
B| 6-------------- 6-- 5-- 6-- 7--|---------------- 7-- 7--10--10--|
G| 4-------------- 7------ 4-- 7--|---- 7---------- 6-- 6-- 9-- 9--|
D|---- 3------ 3 5-------- 5-- 7--|---- 7------ 7-- 7------ 7-- 7--|
A|---------------------- 5--------| 9------ 7------ 5--------------|
E|-------- 5---- 7----------------|------------------------ 9---- 7|
Classical Guitar Tablature http://classicalguitartablature.blogspot.com/
E| 7-------------- 5--------------|--------------------------------|
B| 8-------------- 6-- 8-- 7------|------ 3------------ 3---- 3----|
G| 7-- 7------ 7-- 6-- 7-- 7 9-- 7|-- 6-- 4------------ 4---- 4----|
D|------------ 5------ 5-- 5 7-- 5|-- 5---- 4---------- 5---- 5----|
A|------------------------------ 7|-- 6---- 5---- 0----------------|
E|-------- 6------ 5-- 6-- 7-- 9--|--------------------------------|
Classical Guitar Tablature http://classicalguitartablature.blogspot.com/
E| 2------ 2---- 5------ 5--------|--------------------------------|
B| 3-------- 2-- 2---- 3 3------ 3|------ 3-- 7-------------- 7----|
G| 2-------- 2-- 2---- 3 3------ 2|------ 4-- 5-------------- 5-- 4|
D| 4-------- 2-------- 3-------- 4|------ 3-- 7-------------- 4-- 4|
A| 5------------------ 3---- 3-- 2|-- 3-- 4------ 5----------------|
E|---- 0-- 1-- 2------------------|------------------ 5-- 4--------|
Classical Guitar Tablature http://classicalguitartablature.blogspot.com/
E|---------- 3---------- 3--------|--------------------------------|
B|---------- 3---------- 3---- 3 8|----10------ 7-------- 5------ 2|
G|-- 4-- 4-- 3---------- 2---- 2 7|---- 9------ 7-------- 4---- 2 2|
D|-- 4-- 4-- 2---------------- 1 9|---- 7------ 5-------- 5---- 2 2|
A|------ 5------ 3----------------| 7------------------------------|
E| 3------------------ 3 1--------|---- 9-- 8------ 7-- 6-- 5-- 3 2|
Classical Guitar Tablature http://classicalguitartablature.blogspot.com/
E|---------------- 5------ 5------| 5-- 2--------------------------|
B|---- 2-- 2-- 2-- 2------ 3------| 4-- 5------ 8------10--------12|
G|---- 2-- 2-- 2-- 2------ 3------| 2-- 2------ 5------ 8------ 8 0|
D|---- 2-- 2-- 2------ 2------ 3--| 2---------- 7------ 9------ 7--|
A|---------------- 4------ 3------| 2-- 4---------- 6------ 9-- 8--|
E|-------- 0----------------------|------------------------------ 0|
Classical Guitar Tablature http://classicalguitartablature.blogspot.com/
E|--------------------------------|--------------------------------|
B|--------------------------------| 8-- 7 8---- 7-- 8------ 5------|
G|------------11---- 9------ 9----| 9-- 9 7---- 7-- 7------ 4------|
D|---- 0------ 9------ 9---- 7----| 7---- 5---- 5 5-------- 4---- 3|
A|--------------------------------|--------------------------------|
E|------11--------10------ 9------| 8------ 7-- 6-- 5------ 4---- 3|
Classical Guitar Tablature http://classicalguitartablature.blogspot.com/
E|--------------------------------|-------------------- 5----------|
B| 6-------------- 6-- 5-- 6-- 7--|---------------- 7-- 7--10--10--|
G| 4-------------- 7------ 4-- 7--|---- 7---------- 6-- 6-- 9-- 9--|
D|---- 3------ 3 5-------- 5-- 7--|---- 7------ 7-- 7------ 7-- 7--|
A|---------------------- 5--------| 9------ 7------ 5--------------|
E|-------- 5---- 7----------------|------------------------ 9---- 7|
Classical Guitar Tablature http://classicalguitartablature.blogspot.com/
E| 7-------------- 5--------------|--------------------------------|
B| 8-------------- 6-- 8-- 7------|---------------- 3--------------|
G| 7-- 7------ 7-- 6-- 7-- 7 9----| 7------ 6------ 2--------------|
D|------------ 5------ 5-- 5 7----| 5------ 5------ 4--------------|
A|--------------------------------| 7------ 6------ 5--------------|
E|-------- 6------ 5-- 6-- 7-- 9--|--------------------------------|
Classical Guitar Tablature http://classicalguitartablature.blogspot.com/
E|-------- 5---- 3-- 2------------|--------------------------------|
B|-------- 5---- 0-- 3-- 5-- 3-- 5|------ 5------ 5------ 3---- 3--|
G|-------- 4---- 0-- 2-- 2-- 4-- 4|------ 4------ 4------ 4---- 2--|
D|---------------------- 2-- 4-- 5|------ 5------ 5------ 5---- 4--|
A|--------------------------------| 0 0---- 0 0---- 0 0---- 0---- 0|
E| 5------------ 0---- 2 3---- 4--|--------------------------------|
Classical Guitar Tablature http://classicalguitartablature.blogspot.com/
E|------------------------------ 0|-- 0-- 0---- 0 0-- 0---------- 2|
B|------------------------------ 0|-- 0---- 1-- 1 3-- 3---- 3-- 3 5|
G|---- 2------ 2---- 2------ 2-- 0|---- 0-- 1-- 1-- 0-- 0-- 3-- 3--|
D|---- 4------ 4---- 4------ 4----|------------------------ 2-- 2--|
A|------ 0------ 0-------- 0---- 0|---- 0-- 1-- 1-- 2-- 2-- 3-- 3--|
E|--------------------------------|--------------------------------|
Classical Guitar Tablature http://classicalguitartablature.blogspot.com/
E|---- 2---------------------- 2--|------ 4-- 2---------- 4-- 2----|
B|---- 5---- 3-------- 5------ 2--|---- 2 2-- 2------ 2-- 2-- 2----|
G| 2-- 2------ 2------ 4------ 2--|---- 2-- 2 2------ 2-- 2-- 2----|
D|------------ 4------ 3----------|---- 4------------ 3------------|
A| 4---------- 5------------------|--------------------------------|
E|-------------------- 3----------| 2-------------- 2------------ 2|
Classical Guitar Tablature http://classicalguitartablature.blogspot.com/
E|------ 4------------------------|--------------------------------|
B|-- 2-- 2--10------ 9-- 7------ 5|-- 5--------------------------10|
G|-- 2-- 2-- 8------ 8-- 5------ 7|-- 7-- 9------ 9----------------|
D|-- 2------ 7------ 7-- 7-- 7-- 6|-- 6-- 9------ 7-- 7------ 7----|
A|-------------------- 6------ 7--|--------------------------------|
E|-------------- 7----------------|--------10-- 9-------- 8--------|
Classical Guitar Tablature http://classicalguitartablature.blogspot.com/
E|------ 7---- 9---- 7---- 5------| 2------ 2---- 5------ 5--------|
B|--10-- 7----10---- 8---- 6------| 3-------- 2-- 2---- 3 3------ 3|
G| 7 7-- 6---- 9---- 7---- 6------| 2-------- 2-- 2---- 3 3------ 2|
D| 9 9----------------------------| 4-------- 2-------- 3-------- 4|
A|----------------10 7---- 6------| 5------------------ 3---- 3-- 2|
E| 7------ 5----------------------|---- 0-- 1-- 2------------------|
Classical Guitar Tablature http://classicalguitartablature.blogspot.com/
E|--------------------------------|---------- 3---------- 3--------|
B|------ 3-- 7-------------- 7----|---------- 3---------- 3---- 3 8|
G|------ 4-- 5-------------- 5-- 4|-- 4-- 4-- 3---------- 2---- 2 7|
D|------ 3-- 7-------------- 4-- 4|-- 4-- 4-- 2---------------- 1 9|
A|-- 3-- 4------ 5----------------|------ 5------ 3----------------|
E|------------------ 5-- 4--------| 3------------------ 3 1--------|
Classical Guitar Tablature http://classicalguitartablature.blogspot.com/
E|--------------------------------|---------------- 5------ 5------|
B|----10------ 7-------- 5------ 2|---- 2-- 2-- 2-- 2------ 3------|
G|---- 9------ 7-------- 4---- 2 2|---- 2-- 2-- 2-- 2------ 3------|
D|---- 7------ 5-------- 5---- 2 2|---- 2-- 2-- 2------ 2------ 3--|
A| 7------------------------------|---------------- 4------ 3------|
E|---- 9-- 8------ 7-- 6-- 5-- 3 2|-------- 0----------------------|
Classical Guitar Tablature http://classicalguitartablature.blogspot.com/
E| 5-- 2--------------------------|--------------------------------|
B| 4-- 5------ 8------10--------12|--------------------------------|
G| 2-- 2------ 5------ 8------ 8 0|------------11---- 9------ 9----|
D| 2---------- 7------ 9------ 7--|---- 0------ 9------ 9---- 7----|
A| 2-- 4---------- 6------ 9-- 8--|--------------------------------|
E|------------------------------ 0|------11--------10------ 9------|
Classical Guitar Tablature http://classicalguitartablature.blogspot.com/
E|--------------------------------|--------------------------------|
B| 8-- 7 8---- 7-- 8------ 5------| 6-------------- 6-- 5-- 6-- 7--|
G| 9-- 9 7---- 7-- 7------ 4------| 4-------------- 7------ 4-- 7--|
D| 7---- 5---- 5 5-------- 4---- 3|---- 3------ 3 5-------- 5-- 7--|
A|--------------------------------|---------------------- 5--------|
E| 8------ 7-- 6-- 5------ 4---- 3|-------- 5---- 7----------------|
Classical Guitar Tablature http://classicalguitartablature.blogspot.com/
E|-------------------- 5----------| 7-------------- 5--------------|
B|---------------- 7-- 7--10--10--| 8-------------- 6-- 8-- 7------|
G|---- 7---------- 6-- 6-- 9-- 9--| 7-- 7------ 7-- 6-- 7-- 7 9-- 7|
D|---- 7------ 7-- 7------ 7-- 7--|------------ 5------ 5-- 5 7-- 5|
A| 9------ 7------ 5--------------|------------------------------ 7|
E|------------------------ 9---- 7|-------- 6------ 5-- 6-- 7-- 9--|
Classical Guitar Tablature http://classicalguitartablature.blogspot.com/
E|---------------------------- 5--|-------- 7-------------- 5------|
B|------ 3---------------- 7-- 7--|10--10-- 8-------------- 6-- 8--|
G|-- 6-- 4---------------- 6-- 6--| 9-- 9-- 7-- 7------ 7-- 6-- 7--|
D|-- 5---- 4-------------- 7------| 7-- 7-------------- 5------ 5--|
A|-- 6---- 5-------------- 5------|--------------------------------|
E|--------------------------------| 9---- 7-------- 6------ 5-- 6--|
Classical Guitar Tablature http://classicalguitartablature.blogspot.com/
E|--------------------------------|--------------------------------|
B| 7------------------------------| 3------------------------------|
G| 7 9-- 7-------- 6--------------| 4------------------------------|
D| 5 7---- 5------ 5--------------| 4------------------------------|
A|-------- 7------ 6--------------| 5------------------------------|
E| 7-- 9--------------------------|--------------------------------|

0 ความคิดเห็น:

แสดงความคิดเห็น