To celebrate the anniversary, I am giving you (finally...) : iPhone LickByNeck !!!!!!

It Might Be You

Stephen Bishop's hit fingerstyle solo guitar arrangement played in the key of C.

It Might Be You played in the key of C.
Classical Guitar Tablature http://classicalguitartablature.blogspot.com/
E|---------------------- 3-- 3----|---------------------- 3-- 3----|
B|-------- 1---- 0-- 1-- 1-- 1----|-------- 1---- 0---- 1 1-- 1----|
G|-------- 0---- 0-- 0-- 0---- 0--|-------- 0---- 0---- 0 0-- 0----|
D|---- 2---- 2------ 2------------|---- 2---- 2-- 2---- 2----------|
A| 3------------------------------|--------------------------------|
E|--------------------------------| 0------------------------------|
Classical Guitar Tablature http://classicalguitartablature.blogspot.com/
E|------------------------ 3-- 3--| 3-- 5--------------------------|
B|-------- 1------ 0-- 1-- 1-- 1--| 3-- 3-- 6------ 5---------- 1--|
G|-------- 2------ 2-- 2-- 2-- 2--| 4-- 4-- 5---------- 7------ 0--|
D|---- 3------ 3-- 3-- 3----------|-------- 3-- 3 5-------- 5-- 2--|
A|--------------------------------|--------------------------------|
E| 1------------------------------| 3------ 5---- 7----------------|
Classical Guitar Tablature http://classicalguitartablature.blogspot.com/
E|------------------------ 3-- 3--|------------------------ 3-- 3--|
B|-------- 1------ 0 1---- 1-- 1--|-------- 1---------- 1-- 1-- 1--|
G|-------- 0------ 0-- 0 0---- 0--|-------- 0---- 4---- 0-- 0-- 0--|
D|---- 2------ 2 0---- 2----------| 2-- 2-------- 5---- 2----------|
A| 3------------ 2---- 0----------|---------------- 5-- 3------ 2--|
E|---------------------- 3--------| 0------------------------------|
Classical Guitar Tablature http://classicalguitartablature.blogspot.com/
E|--------------------------------|---- 5---------------------- 0--|
B|-------- 1------ 0-- 1-- 8-- 8--| 8------ 6------ 5-- 3------ 1--|
G| 5------ 2------ 2-- 2-- 5-- 5--| 5------ 7------ 7-- 5-- 0-- 0--|
D|---- 3-- 2-- 2-- 3-- 3-- 5-- 5--| 7------ 7-- 7-- 5-- 3-- 3------|
A|------------------------ 7-- 6 5|--------------------------------|
E| 5------ 3------ 1--------------|------ 8-------- 7-- 5-- 3------|
Classical Guitar Tablature http://classicalguitartablature.blogspot.com/
E|--------------------------------|--------------------------------|
B|------ 1-------------- 1-- 3-- 5|-------- 6-- 8------ 5-------- 3|
G|------ 0-------------- 0-- 0-- 5|-------- 5-- 7------ 7-- 5---- 5|
D|-- 2---------- 2-- 2-- 2-- 2----|-- 5---- 7-- 7------ 5-- 6-- 6--|
A| 3-------- 2-- 0-------------- 7|-------- 5----------------------|
E|---------------------- 3--------|---------------- 8-- 7-- 6---- 5|
Classical Guitar Tablature http://classicalguitartablature.blogspot.com/
E|------ 0------------------------|--------------------------------|
B|------ 1---- 1------------------|-------------- 1-------------- 5|
G|------ 2---- 2------ 2-------- 5|---------- 3-- 2---- 2---- 0----|
D|---- 3------ 3------ 3----------|-- 3------ 5-- 3---- 0---- 0----|
A|------------------------------ 5|------ 4------ 3---- 2---- 0----|
E|-------- 3------ 1------ 0------|--------------------------------|
Classical Guitar Tablature http://classicalguitartablature.blogspot.com/
E|--------------------------------|--------------------------------|
B|---------- 5---------- 1-- 3----| 5------ 6-- 8------ 5----------|
G| 5---- 5-------------- 2---- 0--| 5------ 5-- 7------ 7-- 5------|
D|---- 5-------------- 2------ 0--|---- 5-- 7-- 7------ 5-- 6-- 6--|
A|--------------------------------| 7------ 5----------------------|
E| 3------------ 2------------ 1--|---------------- 8-- 7-- 6------|
Classical Guitar Tablature http://classicalguitartablature.blogspot.com/
E| 7------ 8----------------------|---------------- 5---- 7------ 7|
B| 6------10--10------10----------| 7-------------- 8---- 7------ 8|
G| 5-- 5-- 9-- 9------ 9-- 9------| 5---- 7---- 7 7-- 7-- 5-- 5----|
D|------------10------1010----10--|---- 7------ 7------------------|
A|-------- 9------ 8------ 7------| 5----------------------------10|
E| 5------------------------------|-------- 8---- 7------ 5--------|
Classical Guitar Tablature http://classicalguitartablature.blogspot.com/
E|------ 8------------------------|---------------------- 3---- 0--|
B|------10---- 8------------------|---------- 6-- 5------ 0---- 0--|
G|---- 9 7---- 5------ 5-------- 7|---------- 4---- 4---- 0---- 1--|
D|------------ 5------ 5----------|-- 7-------- 3-- 3--------------|
A|------ 9---- 7---------- 5------|--------------------------------|
E|---------------------------- 8--| 7---- 5-------- 4---- 1---- 0--|
Classical Guitar Tablature http://classicalguitartablature.blogspot.com/
E|--------------------------------|--------------------------------|
B|-------- 5------------------ 1--| 3---- 5---- 6-- 7--------------|
G| 7------ 7-- 5---- 2-- 4---- 2--| 2------ 5-- 6-- 5---------- 5--|
D|---- 7-- 7-- 6---- 2-- 3---- 2 0|-- 0---- 5-- 5-- 7------ 7------|
A|--------------------------------|-------- 7-- 6-- 5--------------|
E| 8------ 7------ 6-- 5 4---- 3--| 2------------------------------|
Classical Guitar Tablature http://classicalguitartablature.blogspot.com/
E|-------------- 3----------------|---------------------- 0--------|
B| 6-- 5 6-- 5-- 5-- 5------ 3----|---------- 3-- 3------ 3------ 6|
G| 5-- 5 5-- 5-- 3-- 3------ 2----|------ 2-------- 0-------- 0-- 7|
D| 3-- 3 3-- 3---------- 5-- 3----|-- 3-------------- 0---------- 5|
A| 5------------ 4-------------- 3|---------------- 2--------------|
E|--------------------------------|------------------------------ 6|
Classical Guitar Tablature http://classicalguitartablature.blogspot.com/
E|--------------------------------|--------------------------------|
B|-- 5-- 6-- 5-- 8---- 5---- 3----|---------- 3--------------------|
G|-- 7-- 7-- 7---- 5-- 5---- 4----|------ 4------ 4------ 7------ 9|
D|-- 5-- 5-- 5-- 7-------- 7-- 3--|-- 3---------------- 3------ 7--|
A|--------------------------------|--------------------------------|
E|-------------- 5----------------| 4------------ 5------ 7--------|
Classical Guitar Tablature http://classicalguitartablature.blogspot.com/
E|---------------------------- 3 8|---- 8 8---- 7---------- 0------|
B|-------------------- 1-- 5---- 5|---- 5 6---- 6-- 1------ 1------|
G|-------------------- 0-- 5---- 5|---- 5 4---- 4-- 0---------- 0--|
D|---- 7------ 7------ 2 5--------|-------------------- 2----------|
A|--------------------------------|--------------------------------|
E| 8------10------ 0---- 3--------| 5---- 4-------- 3------ 1------|
Classical Guitar Tablature http://classicalguitartablature.blogspot.com/
E|--------------------------------| 6 6-- 6-- 5--------------------|
B| 8--------------10------ 7------| 3-- 3 8-- 5-------- 3------ 6--|
G| 7------ 9------ 8------ 5---- 3|-- 3-- 6-- 3-------- 3------ 5--|
D|---- 9------ 9------10 8---- 7--|-------------------- 2------ 3--|
A| 7------10------ 9------ 6---- 5|------ 7------ 4------ 3--------|
E|--------------------------------|--------------------------------|
Classical Guitar Tablature http://classicalguitartablature.blogspot.com/
E|--------------------------------| 4-- 4--------------------------|
B|---- 6---------- 1------ 6-- 8--| 6-- 6-- 9-- 8------------------|
G|---- 5---------- 2------ 5------| 5-- 5-- 8-- 7------ 7 5------ 0|
D|---- 3---------- 3-- 3 5--------|-------- 6-- 6------ 6------ 3--|
A|------------------------------ 6|--------------------------------|
E| 5------ 5-- 3-- 1---- 0--------|-------- 8------ 6---- 4------ 3|
Classical Guitar Tablature http://classicalguitartablature.blogspot.com/
E| 0------------------------------|---------------------- 7-- 8----|
B| 1---------- 1------------ 1----| 3---- 5------ 9----10 6-- 8----|
G|-------- 0------------ 2--------| 2---- 4------ 9---- 9 7-- 7----|
D|---- 2-------------- 2----------|---- 0 3-- 3-- 9---- 7----------|
A|--------------------------------|--------------------------------|
E|---------------- 2--------------| 1------ 0------10-- 8-- 7-- 6--|
Classical Guitar Tablature http://classicalguitartablature.blogspot.com/
E|--------------------------------| 8-- 8-- 8--10---------------- 7|
B|-------------------- 1-- 5-- 8--|10------10--10------10-------- 8|
G| 5------ 7---------- 2-- 5------| 7-- 7-- 7--11------ 7----------|
D|---- 5------ 6------ 2 5--------|-------------------- 7------ 7--|
A|---------------- 3---- 7------ 9|-------- 7----------------------|
E| 5------ 7----------------------|----------------10------ 8---- 7|
Classical Guitar Tablature http://classicalguitartablature.blogspot.com/
E|---------------------------- 5--| 6---- 6---- 6-- 8--------------|
B|-------------- 3------ 8---- 8--| 8---- 8-- 8---- 8------ 8------|
G|-------- 7 5-- 4------ 7--------| 5---- 5-- 5-- 9-------- 5------|
D|---- 7---- 5-------- 5----------|-------------------- 8------ 5--|
A|---------------------- 8------ 7|------------ 5------------------|
E|------------ 5-- 3--------------|-------------- 8-------- 6---- 5|
Classical Guitar Tablature http://classicalguitartablature.blogspot.com/
E| 5------------------------------|--------------------------------|
B| 6------ 6------ 1---------- 5--| 6-- 5 6-- 5---- 8---- 5--------|
G| 5------ 5-- 3-- 2------ 7------| 5-- 5 3-- 3---- 7---- 7---- 7--|
D|---- 5------ 3-- 3-- 3-- 5------| 3-- 3 5-- 5-- 7------ 5---- 5--|
A|------------------------ 7------| 5------ 4----------------------|
E|------------ 3-- 1--------------|-------------- 8-------- 7------|
Classical Guitar Tablature http://classicalguitartablature.blogspot.com/
E|--------------------------------|---------------- 8--------------|
B|-------------- 3------ 5--------| 6-- 5-- 6-- 5-- 8------ 5------|
G|------ 7------ 5------ 5--------| 5-- 5-- 5-- 5------ 9-- 5-- 7--|
D|-- 5------ 5------ 3-------- 3--| 3-- 3-- 3-- 3---------- 7-- 6--|
A|--------------------------------|----------------10------ 9------|
E| 6------------ 5----------------| 4------------------------------|
Classical Guitar Tablature http://classicalguitartablature.blogspot.com/
E|--------------------------------|---------------- 8--------------|
B|-------- 5------ 3------ 5------| 6-- 5-- 6-- 5-- 8------ 5------|
G|------------ 7-- 3------ 3------| 7------ 7---- 7-------- 5------|
D|---- 6---------- 5------ 5------| 7---- 5------------ 5-- 3-- 3--|
A| 8------------ 7------ 4--------|--------------------------------|
E|------------------------------ 8|------ 7------ 6-------- 5---- 4|
Classical Guitar Tablature http://classicalguitartablature.blogspot.com/
E|--------------------------------|---------------------- 3-- 3----|
B| 3-------------- 1--------------| 1------ 1---- 1-- 1-- 1---- 1 5|
G| 5-- 5---------- 2-- 2------ 0--| 0------ 0-------- 0-- 0---- 0 5|
D| 3---------- 3 2---- 3------ 3--|---- 2-------- 2-- 2------------|
A|-------------------- 0------ 2--| 3-------- 2-- 0-------------- 7|
E|-------- 3---- 2----------------|---------------------- 3--------|
Classical Guitar Tablature http://classicalguitartablature.blogspot.com/
E|---------------------- 3---- 3--|------------------------ 3-- 3--|
B|-------------- 1-------- 1-- 0--|------------ 1-- 1-- 1-- 1-- 1--|
G|------ 5-- 5---- 0--------------|-------- 5-- 2-- 2-- 2-- 2-- 0--|
D|-- 5-------- 5---- 2------ 0----|---- 3------ 2-- 3-- 3----------|
A|---------- 5-- 3------------ 2--|--------------------------------|
E|--------------------------------| 5---------- 3-- 1---------- 0--|
Classical Guitar Tablature http://classicalguitartablature.blogspot.com/
E|---- 5--------------------------|------------------ 3-- 8----10--|
B| 8-- 8-- 6------ 5--------------|-------------------- 5--10------|
G| 5-- 5-- 7------ 7-- 7-- 5-- 5--|-------- 5---------- 5 9---- 9--|
D| 7------ 7------ 5-- 5-- 3-- 3--|---- 3------ 3------------------|
A| 5------------------------------|---------------------- 9--------|
E|------------ 8-- 7-- 6-- 5------| 4------------ 3----------------|
Classical Guitar Tablature http://classicalguitartablature.blogspot.com/
E|12----13----12------------------|--------------------------------|
B| 9---- 9----13------------------|10----------10-------------- 8 8|
G|10--10--10--12------12--12------| 9------ 9-------------- 7-- 7--|
D|----------------------------10--|---- 7-------------- 5----------|
A| 8------------------------------|--------------------------------|
E|----------------12------11------| 8------------ 7-------------- 6|
Classical Guitar Tablature http://classicalguitartablature.blogspot.com/
E|------ 5------------------------|--------------------------------|
B|------ 8---- 6-- 5---- 3-- 1----|-- 1----------------------------|
G| 7---- 7---- 5-- 5---- 2-- 0----|-- 0----------------------------|
D| 5---------- 3-- 3---- 2-- 0----| 2------------------------------|
A|--------------------------------|--------------------------------|
E|------------ 5-- 4---- 2---- 1--| 0------------------------------|
Classical Guitar Tablature http://classicalguitartablature.blogspot.com/
E|--------------------------------|--------------------------------|
B|--------------------------------|--------------------------------|
G|--------------------------------|--------------------------------|
D|--------------------------------|--------------------------------|
A|--------------------------------|--------------------------------|
E|--------------------------------|--------------------------------|

0 ความคิดเห็น:

แสดงความคิดเห็น