To celebrate the anniversary, I am giving you (finally...) : iPhone LickByNeck !!!!!!

大約在冬季 - 齐秦 - It's Around Fall (Basic)

Classic Chinese Tune fingerstyle chord melody guitar basic arrangement played in the key of C.
http://classicalguitartablature.blogspot.com/
You need to install the Flash plugin - http://www.webestools.com/

http://classicalguitartablature.blogspot.com/
It's Around Fall - BASIC ARRANGEMENT played in the key of C
http://classicalguitartablature.blogspot.com/
E|-------------- 0---------- 0 3 5|-------- 3---- 0-------------- 5|
B| 1---- 1-- 1 3 0------ 0-- 0 0 5|------ 5------ 0-------------- 5|
G| 0---- 0-- 0 0 0------ 0------ 5|-------- 5-- 5 0------ 0------ 5|
D|-- 2-------------- 0------------|-- 5---------------- 0----------|
A| 3------------------------------|------------------------------ 0|
E|-------------- 0-------------- 5|-------- 3---- 0----------------|
http://classicalguitartablature.blogspot.com/
E|------ 7---- 7-- 8----10--------|1515----------------------------|
B|---- 5---- 8----10----10 8-- 8--|1010------------------------ 1 1|
G|-- 5------ 9---- 9-- 9-- 7 7----|1010-------------------- 2------|
D| 5----------------10------ 9----|-------------------- 3----------|
A|------10-------- 8------ 7------|--------------------------------|
E|--------------------------------|10-------------- 3--------------|
http://classicalguitartablature.blogspot.com/
E|-------------- 0-- 3 3---- 0 3 5|------ 0-------- 0-------- 0----|
B|-- 1-- 1-- 1 3 0-- 0 0---- 0 0 5|-- 5 5 1-- 3---- 0---------- 3 1|
G| 0 0-- 0---- 0-- 0 0 0-- 0---- 5|-- 5 5 0-------- 0---- 0--------|
D| 2 2-- 2 2----------------------|-- 5 5---- 2 2------ 0---- 0----|
A| 3---- 3------------------------|--------------------------------|
E|---------------- 0---- 0--------| 5---- 3-------- 0------ 0------|
http://classicalguitartablature.blogspot.com/
E|---------- 0--------------------|---------------- 3--------------|
B|------------ 3-- 1---------- 1 3| 3-- 3 3-- 5 3-- 1------------ 1|
G| 2 2 2---------- 2 2 2---- 2-- 5| 5---- 5-- 5 5-- 2---- 2---- 1--|
D| 2 2 2-- 2---- 2-- 2 2-- 2---- 3| 3-- 3 3-- 3 3------ 3---- 3----|
A| 0---------------------------- 5|--------------------------------|
E|------ 3------ 1------ 0--------|------ 4-------- 3------ 3------|
http://classicalguitartablature.blogspot.com/
E|-------------- 0-- 3 3---- 0 3 5|------ 0-------- 0-------- 0----|
B|-- 1-- 1-- 1 3 0-- 0 0---- 0 0 5|-- 5 5 1-- 3---- 0---------- 3 1|
G| 0 0-- 0---- 0-- 0 0 0-- 0---- 5|-- 5 5 0-------- 0---- 0--------|
D| 2 2-- 2 2----------------------|-- 5 5---- 2 2------ 0---- 0----|
A| 3---- 3------------------------|--------------------------------|
E|---------------- 0---- 0--------| 5---- 3-------- 0------ 0------|
http://classicalguitartablature.blogspot.com/
E|---------- 0--------------------|--------------------------------|
B|------------ 3-- 1---------- 1 3| 3 3 3 3------------------------|
G| 2 2 2---------- 2 2 2---- 2-- 5| 5 5 5 0-- 0-- 2-------- 2------|
D| 2 2 2-- 2---- 2-- 2 2-- 2------| 3 3 3 0-------------- 2-- 2----|
A| 0---------------------------- 5|-------------- 0---------- 0----|
E|------ 3------ 1------ 0--------|------ 3------------------------|
http://classicalguitartablature.blogspot.com/
E| 5 5 5---------- 3 3 3---- 0----|---------------- 0--------------|
B| 5 5 5------ 5-- 0 0 0------ 3 1|-- 1 1 1-- 3 1-- 1-------- 3----|
G| 5 5 5---- 5---- 0 0 0-- 0---- 2|-- 2 2 0-- 0 0-- 0---- 0-- 0----|
D|-------- 5-------------------- 3|-- 3 3 0-- 0 0------ 2---- 0----|
A|--------------------------------|---------------- 3-------- 2----|
E| 5------ 5------ 0------ 0---- 1|------ 3------------------------|
http://classicalguitartablature.blogspot.com/
E| 5 5 5---- 5 7 5-- 3 3------ 3 5|-------------- 3----------------|
B| 5 5 5---- 5 5-- 0 0 0---- 5-- 5|-- 5-- 3-- 1-- 1-------- 1---- 1|
G| 5 5 5-- 5 5 5-- 0 0 0-- 0---- 5|-- 5-- 2-- 2-- 2---- 2---- 2----|
D|--------------------------------|-- 5---- 0 0------ 3-------- 3--|
A|------------------------------ 5|--------------------------------|
E| 5---- 5-------- 0------ 0------|------ 2-------- 3--------------|
http://classicalguitartablature.blogspot.com/
E|-------------- 0-- 3 3---- 0 3 5|------ 0-------- 0-------- 0----|
B|-- 1-- 1-- 1 3 0-- 0 0---- 0 0 5|-- 5 5 1-- 3---- 0---------- 3 1|
G| 0 0-- 0---- 0-- 0 0 0-- 0---- 5|-- 5 5 0-------- 0---- 0--------|
D| 2 2-- 2 2----------------------|-- 5 5---- 2 2------ 0---- 0----|
A| 3---- 3------------------------|--------------------------------|
E|---------------- 0---- 0--------| 5---- 3-------- 0------ 0------|
http://classicalguitartablature.blogspot.com/
E|---------- 0--------------------|--------------------------------|
B|------------ 3-- 1---------- 1 3| 3 3 3 3------------------ 5 3 1|
G| 2 2 2---------- 2 2 2---- 2-- 5| 5 5 5 0-- 0-- 2------ 2-- 4 4--|
D| 2 2 2-- 2---- 2-- 2 2-- 2------| 3 3 3 0---------- 2---- 3 3----|
A| 0---------------------------- 5|---------------- 0--------------|
E|------ 3------ 1------ 0--------|------ 3-------------- 4--------|
http://classicalguitartablature.blogspot.com/
E|---------- 0--------------------|--------------------------------|
B|------------ 3-- 1---------- 1 3| 3 3 3 3------------------ 5 3 1|
G| 2 2 2---------- 2 2 2---- 2-- 5| 5 5 5 0-- 0-- 2------ 2-- 4 4--|
D| 2 2 2-- 2---- 2-- 2 2-- 2------| 3 3 3 0---------- 2---- 3 3----|
A| 0---------------------------- 5|---------------- 0--------------|
E|------ 3------ 1------ 0--------|------ 3-------------- 4--------|
http://classicalguitartablature.blogspot.com/
E|---------- 0--------------------|---------------------------- 3--|
B|------------ 3-- 1---------- 1 3| 3 3 3-- 3-------- 3------------|
G| 2 2 2---------- 2 2 2---- 2-- 5| 5 5 5-- 4---- 4----------------|
D| 2 2 2-- 2---- 2-- 2 2-- 2------| 3 3 3-- 3-- 3------------------|
A| 0---------------------------- 5|--------------------------------|
E|------ 3------ 1------ 0--------|------ 4------------------------|
http://classicalguitartablature.blogspot.com/
E|---------------------------- 5--|--------------------------------|
B|------------------------------ 6|------ 6------------------------|
G|---------------------------- 7--|-- 7------ 7--------------------|
D|--------------------------------| 7------------ 7----------------|
A|--------------------------------|--------------------------------|
E|-------------------------- 6----|--------------------------------|
http://classicalguitartablature.blogspot.com/

0 ความคิดเห็น:

แสดงความคิดเห็น