To celebrate the anniversary, I am giving you (finally...) : iPhone LickByNeck !!!!!!

Laughter In The Rain

Classic Neil Sedaka's hit fingerstyle chord melody guitar arrangement played in the key of C.
http://classicalguitartablature.blogspot.com/

http://classicalguitartablature.blogspot.com/
Laughter In The Rain played in the key of C.
http://classicalguitartablature.blogspot.com/
E|------ 3------------------------|--------------------------------|
B| 5-- 3 3-- 5------------------ 5|------ 8-- 5------------------ 5|
G| 5-- 5 5---- 7---- 7---------- 7|-- 7------ 7------ 7------ 7-- 5|
D| 3-- 3------ 7---- 7------ 7-- 5|---------- 5-- 5---------- 5-- 3|
A| 5------------------------------|--------------------------------|
E|-------------- 8------ 8------ 7|---------- 6---------- 6------ 5|
http://classicalguitartablature.blogspot.com/
E|------ 3-- 0--------------------|--------------------------------|
B|-- 3-- 6-- 1------ 3------------|-- 1-- 1------------------------|
G|-- 5-- 5-- 0------ 0------ 0-- 2|------ 1------ 5------ 5---- 5--|
D|-- 3-------------- 2------ 2-- 2|------ 0-- 0-- 5------ 4---- 3--|
A|--------------------------------|-------------- 7-- 6-- 5---- 4--|
E|------ 4------ 3------ 3------ 2|------ 1------------------------|
http://classicalguitartablature.blogspot.com/
E| 3-- 5 8---- 5---------------- 0|------ 3------------------------|
B| 5-- 5 8---- 5---- 8-- 5------ 3|---- 3 1-- 5------ 3---------- 5|
G| 4-- 4 7---- 5---- 5-- 4------ 2|---- 2 0-- 5------ 2---------- 7|
D|------------------ 5-- 5-- 5----|---- 3---- 3------ 3------ 3-- 5|
A| 3------------------------------|-------------- 5------ 3--------|
E|-------- 7---- 5-------- 3---- 1|-------- 0-------------------- 7|
http://classicalguitartablature.blogspot.com/
E|--------------------------------|---- 0-- 0----------------------|
B|------ 8-- 5------ 3------------|---- 1-- 1----------------------|
G|-- 7-- 5-- 4------ 4-- 0--------| 2-------------- 5---------- 5--|
D|-- 5-- 7-- 3------ 3------ 0----| 2---------- 2-- 5-- 5------ 3 5|
A|--------------------------------|--------------------------------|
E|------ 5------ 3------ 1--------| 0------ 2------ 3------ 4---- 5|
http://classicalguitartablature.blogspot.com/
E|-- 5-- 8------------------------|------ 3------ 0----------------|
B| 8------ 8--10------ 8---- 5-- 5|---- 3-- 1-- 3------ 3-------- 5|
G| 5------ 7-- 9------ 9------ 3--| 5-- 5-- 0-- 2------ 2------ 2 4|
D|------------ 7------ 7------ 5--| 3-- 3------------ 3-------- 2 3|
A|------------------------ 4------| 5------------------------------|
E|-------- 7------ 8--------------|-------- 0---- 1-------- 2---- 3|
http://classicalguitartablature.blogspot.com/
E|---------- 0--------------------|--------------------------------|
B|-- 3-- 8-- 3------ 3------------|-- 1-- 1------ 0----------------|
G|-- 4-- 5-- 0------ 0------ 0-- 2|------ 0------ 2------------ 4--|
D|-- 3-- 7---------- 3------ 3-- 2|------------ 2------ 0------ 2--|
A|-------------- 1------ 2------ 3|--------------------------------|
E|------ 5------------------------|-------- 0---- 1-------- 4------|
http://classicalguitartablature.blogspot.com/
E|---------------------------- 8--|------------------ 5-------- 5--|
B|----------------------------10--|--10-------------- 7-- 8---- 8--|
G|---- 5-- 5-- 5 5-- 5-- 5---- 7--|---- 7------ 7---- 5-- 7---- 7--|
D|---- 5-- 3-- 3-- 5 5-- 5--------|------------------------ 7------|
A|------------------------ 7---- 9|------ 7-------- 5--------------|
E| 5------ 4------ 3--------------|------------------------ 8------|
http://classicalguitartablature.blogspot.com/
E|--------------------------------| 8------------------------ 6----|
B|---- 8-------- 3---------- 4----| 9---- 9----------11--11-- 8----|
G|---- 5-------- 4---------- 3----| 8---- 8---- 8----10--10-- 7----|
D|---- 7---- 7------ 3-------- 2--|------10----10------ 8 8--------|
A|--------------------------------| 8------------------------------|
E| 7---- 5------ 3-------- 2------|--------11------10------ 8---- 6|
http://classicalguitartablature.blogspot.com/
E|------ 3-- 3-- 3----------------|-------------------- 4-- 4------|
B|-- 8-- 6-- 6-- 4-- 4-- 4-- 4-- 4|-- 1---------------- 6-- 1-- 9--|
G|-- 7-- 3-- 3-- 3-- 3-- 3-- 3-- 1|-- 1-- 5---- 5-- 5------ 1-- 7--|
D|-- 8-------------- 5-- 2-- 2-- 1|-- 1---- 6-- 6-------------- 8--|
A|--------------------------------|-------- 6------ 5------ 3------|
E|------ 4------ 3------ 2------ 1|--------------------------------|
http://classicalguitartablature.blogspot.com/
E|-------- 3 3--------------------| 8---- 8---------- 6-- 6---- 6--|
B|---- 8 6------ 4-------- 8------| 9-- 9---- 9------ 6---- 3-- 3--|
G|---- 7 3-- 3-- 3-------- 7------| 8---- 8-- 8------ 7---- 3-- 3--|
D|---- 8-------- 1-------- 8------|------------ 7------------------|
A|------------------------ 6-- 5--|--------------------------------|
E| 6------ 4------ 3-- 1----------| 8------ 7---- 6-------- 4---- 3|
http://classicalguitartablature.blogspot.com/
E|-- 3-- 3-- 3--------------------|--------------------------------|
B|-- 3-- 3-- 3------ 4-- 4---- 4--|-- 1---- 1-- 1------ 3------ 3--|
G|-- 3-- 3-- 3------ 5---- 3-- 1--|-- 1---- 0-- 0-- 5------ 5-- 0--|
D|------------------ 5-- 5---- 5--|---- 5-- 1-- 1-- 3------ 3-- 0--|
A|-------------- 6-------- 4---- 3|-------- 1----------------------|
E|-------- 1----------------------|---------------- 4------ 3------|
http://classicalguitartablature.blogspot.com/
E|--------------------------------| 3-- 5 8---- 5---------------- 0|
B|-------- 3------ 3------ 3------| 5-- 5 8---- 5---- 8-- 5------ 3|
G|---- 0-- 5------ 3------ 4------| 4-- 4 7---- 5---- 5-- 4------ 2|
D|---- 0------ 6 3---- 3-- 3------|------------------ 5-- 5-- 5----|
A|-------- 6------ 5------ 4------| 3------------------------------|
E| 1------------------------------|-------- 7---- 5-------- 3---- 1|
http://classicalguitartablature.blogspot.com/
E|------ 3------------------------|--------------------------------|
B|---- 3 1-- 5------ 3---------- 5|------ 8-- 5------ 3------------|
G|---- 2 0-- 5------ 2---------- 7|-- 7-- 5-- 4------ 4-- 0--------|
D|---- 3---- 3------ 3------ 3-- 5|-- 5-- 7-- 3------ 3------ 0----|
A|-------------- 5------ 3--------|--------------------------------|
E|-------- 0-------------------- 7|------ 5------ 3------ 1--------|
http://classicalguitartablature.blogspot.com/
E|---- 0-- 0----------------------|-- 5-- 8------------------------|
B|---- 1-- 1----------------------| 8---- 8----10------ 8---- 5-- 5|
G| 2-------------- 5---------- 5--| 5------ 7-- 9------ 9------ 3--|
D| 2---------- 2-- 5-- 5------ 3 5|------------ 7------ 7------ 5--|
A|--------------------------------|------------------------ 4------|
E| 0------ 2------ 3------ 4---- 5|-------- 7------ 8--------------|
http://classicalguitartablature.blogspot.com/
E|------ 3------ 0----------------|---------- 0--------------------|
B|---- 3-- 1-- 3------ 3-------- 5|-- 3-- 8-- 3------ 3------------|
G| 5-- 5-- 0-- 2------ 2------ 2 4|-- 4-- 5-- 0------ 0------ 0-- 2|
D| 3-- 3------------ 3-------- 2 3|-- 3-- 7---------- 3------ 3-- 2|
A| 5------------------------------|-------------- 1------ 2------ 3|
E|-------- 0---- 1-------- 2---- 3|------ 5------------------------|
http://classicalguitartablature.blogspot.com/
E|------------------------------ 0|-------- 3----------------------|
B|-- 1-- 1------ 0----------------| 3 3-- 6---- 5---- 3------------|
G|------ 0------ 2------------ 4--| 5 5-- 5---- 5------ 2 0-- 2----|
D|------------ 2------ 0------ 2--|---- 5------ 3---- 2-- 0-- 2----|
A|--------------------------------|--------------------------------|
E|-------- 0---- 1-------- 4------| 5------ 4---- 3---- 2 1------ 0|
http://classicalguitartablature.blogspot.com/
E|--------------------------------|--------------------------------|
B|-- 1-------------------------- 3|---- 5-- 8-- 5------ 3----------|
G|-- 2-- 5------ 5---------- 5----| 2-- 7-- 7-- 5------ 5-- 0-- 2--|
D|-- 2------ 5------ 4------ 3----| 3-- 7-- 6-- 5------ 3-- 2-- 0--|
A|------ 6------ 5------ 4--------| 3------------------------------|
E|--------------------------------|---- 7-- 6------ 5-- 4-- 3-- 2--|
http://classicalguitartablature.blogspot.com/
E|--------------------------------|--------------------------------|
B|-- 1-- 1------------------------|--------------------------------|
G|-- 1-- 0------------------------|--------------------------------|
D|-- 0-- 2------------------------|--------------------------------|
A|--------------------------------|--------------------------------|
E| 1------ 0----------------------|--------------------------------|
http://classicalguitartablature.blogspot.com/

0 ความคิดเห็น:

แสดงความคิดเห็น