To celebrate the anniversary, I am giving you (finally...) : iPhone LickByNeck !!!!!!

Let It Be Me

Classic Everly Brothers' hit fingerstyle solo guitar arrangement played in the key of E.
http://classicalguitartablature.blogspot.com/

http://classicalguitartablature.blogspot.com/
Let It Be Me played in the key of E.
http://classicalguitartablature.blogspot.com/
E|-------------------------- 2----|--------------------------------|
B|-------------- 2---- 5---- 0-- 5|--------------------------------|
G| 6-------- 5-- 4---- 2---- 1----| 6-- 4------ 4------ 4-- 4---- 9|
D|---- 7---- 4-- 2---- 4---- 2----| 6-- 4------ 4------ 4------ 2 7|
A| 6---- 5-------- 4---- 3---- 2--|--------------------------------|
E|--------------------------------| 6------ 5------ 4------ 3------|
http://classicalguitartablature.blogspot.com/
E|--------------------------------|---------------------------- 0--|
B|-------------- 2---- 5------ 4--| 5---- 5---- 5-- 5------ 5 3----|
G|---- 7 6-- 4---- 2-- 2------ 6--| 6---- 5---- 4-- 4------ 2 2----|
D|---- 9 7-- 7---- 4-- 2------ 7--| 6---- 4---- 4-- 3------ 2-- 0--|
A| 9-- 8 7---- 6-- 5-- 4-- 3------|--------------------------------|
E|---------------------------- 7--| 6------ 5-- 4-- 3------ 2-- 1--|
http://classicalguitartablature.blogspot.com/
E|-------- 4------ 4--------------| 7---------- 5 4------ 2--------|
B| 5------ 7------ 5------ 9------| 7---------- 4 5------ 2--------|
G| 4------ 4------ 4------ 9------| 8---------- 4 4------ 2------ 6|
D|---- 6---- 4------ 6-------- 7--|---- 9--------------------------|
A|-------- 6------ 4--------------|--------------------------------|
E| 0---------------------- 8------| 7------ 5------ 4-- 3-- 2-- 1 0|
http://classicalguitartablature.blogspot.com/
E|--------------------------------|--------------------------------|
B|------------ 5-- 5------ 5------| 9---------- 7-- 5-------- 4----|
G|------------ 5-- 4------ 2------| 8---------- 6-- 4-------- 4----|
D|---- 6------ 4-- 2-- 2-- 4-- 4--|---- 6------ 4------ 4------ 2--|
A|-------- 5------ 4------ 3------|--------------------------------|
E|--------------------------------| 7------ 5------ 4------ 3---- 2|
http://classicalguitartablature.blogspot.com/
E|--------------------------------|--------------------------------|
B|---------------- 2-- 5---- 7-- 5|---- 0--------------------------|
G|---- 2-- 2---- 2---- 6---- 5-- 4|---- 2-------------- 2-- 1---- 5|
D|---- 2------ 0-- 2-- 5---- 7----| 2-- 4---- 4------ 4---- 2 2----|
A|-------------------- 6---- 5----| 4---- 3------ 2------ 1--------|
E|-------- 1------ 0--------------|------------------------------ 5|
http://classicalguitartablature.blogspot.com/
E|--------------------------------|--------------------------------|
B|-------------- 2------ 5-- 4-- 5|--------------------------------|
G|------ 4-- 4-- 4------ 2-- 6-- 4|------------ 4--11---- 9---- 9--|
D|-- 4------ 4-- 2------ 2-- 7-- 6|-- 6-------- 4-- 9---- 7---- 7--|
A|-------------------------- 8----| 7------ 6----------------------|
E|------ 4------ 3------ 2--------|----------------10---- 9---- 8--|
http://classicalguitartablature.blogspot.com/
E|-------- 4---- 4-------- 4---- 7|---------- 5--------------------|
B|-------- 5---- 5------ 5------ 7|---------- 7---- 9---- 7--------|
G| 4------ 6---- 5------ 4--------| 8-------- 6---- 6------ 5------|
D|---- 6---- 6------ 4-------- 4--|---- 9-------------- 7-- 7 7----|
A|--------------------------------| 9------ 7------ 6------ 5------|
E| 7------ 6---- 5-------- 4------|--------------------------------|
http://classicalguitartablature.blogspot.com/
E|--------------------------------| 4------------------------------|
B|-------- 5------ 5------ 5------| 7-------- 7---- 5------ 4------|
G|---- 4-- 2------ 6------ 6------| 6---------- 4-- 4------ 1------|
D|---- 2-- 4-- 4------ 6------ 6--|-- 4-------- 4------ 2-- 1------|
A| 4------ 3----------------------|------------------------ 1------|
E|---------------- 7------ 6------| 5------ 4------ 3------ 2-- 1--|
http://classicalguitartablature.blogspot.com/
E|-------------------------- 2----|--------------------------------|
B|---------------- 2-- 5---- 4----| 5------------------------------|
G| 2---------- 4-- 2-- 4---- 2----| 4-- 4---------- 4-------- 4-- 2|
D|---- 2------ 4-- 4---- 3--------| 6-- 4------ 4---- 4------ 3----|
A|------ 6-------- 5---- 4-- 3----|--------------------------------|
E| 0------------------------------| 7------ 5------ 4---- 3------ 2|
http://classicalguitartablature.blogspot.com/
E|--------------------------------|--------------------------------|
B|-------------- 2------ 5---- 4--| 5------------ 3--------------10|
G|---------- 2-- 2------ 6---- 5--| 4-- 4------ 3 2---------- 1-- 9|
D|-- 2------ 0-- 2------ 4---- 4--| 2-- 2------ 5---- 0-------- 311|
A|---------------------- 6---- 5--| 4------ 3---- 2------ 1------12|
E|------ 1------ 0----------------|--------------------------------|
http://classicalguitartablature.blogspot.com/
E|---------- 9-- 9---------- 7-- 7|---------- 4--------------------|
B|----------12----10-------- 7-- 4|---------- 4------------------ 5|
G|---------- 9-- 9---------- 6-- 4|---------- 4---- 8-------- 7----|
D|--11--------------11------------|-- 4---------------- 6---- 6----|
A|------11------ 9------ 7------ 6|------ 4------------------------|
E|--------------------------------|---------------- 7------ 6------|
http://classicalguitartablature.blogspot.com/
E|------ 9------11---------- 9-- 7|--------------------------------|
B|------12------10---------- 9-- 9|-- 9-- 7-- 7-- 7-- 7-- 7-- 7----|
G| 6---- 9------------11---- 8-- 8|-- 8-- 6-- 5-- 9-- 9-- 7-- 7----|
D|---- 7------ 9------------------|-- 9-- 7-- 7-- 9-- 8-- 7-- 6----|
A|------11------ 9------ 8------ 7|------ 6-- 5--------------------|
E| 5------------------------------|-------------- 9-- 8-- 7---- 6--|
http://classicalguitartablature.blogspot.com/
E|-------- 5---------------- 9-- 7|--------------------------------|
B| 5------ 5------12-------- 7-- 7|-- 5---------- 5----------------|
G| 6---------- 4-- 9-------- 6-- 6|-- 5------ 5-- 4---------- 2-- 4|
D|---- 6--------------11----------|-- 4------ 4------ 2-------- 4--|
A|---------------- 9---- 7------ 6|------ 5------ 4------ 3--------|
E| 5------ 4----------------------|--------------------------------|
http://classicalguitartablature.blogspot.com/
E|--------------------------------| 4---------- 2------------------|
B|---------------- 5---- 7---- 5--| 1---------- 5------------------|
G|------------ 6-- 5---- 5---- 4--| 1------ 6-- 4---- 4-------- 2--|
D|---- 6------ 4-- 4---- 4---- 3--|---- 1-- 7---------- 2------ 4--|
A|--------------------------------|-------- 6---- 4------ 3------ 2|
E| 7------ 6------ 5---- 4---- 3--| 2------------------------------|
http://classicalguitartablature.blogspot.com/
E|-------- 4---- 4-------- 4---- 7|---------- 5--------------------|
B|-------- 5---- 5------ 5------ 7|---------- 7---- 9---- 7--------|
G| 1------ 6---- 5------ 4--------| 8-------- 6---- 6------ 5------|
D|---- 2---- 6------ 4-------- 4--|---- 9-------------- 7-- 7 7----|
A|--------------------------------| 9------ 7------ 6------ 5------|
E|-------- 6---- 5-------- 4------|--------------------------------|
http://classicalguitartablature.blogspot.com/
E|--------------------------------| 4------------------------------|
B|-------- 5------ 5------ 5------| 7-------- 7---- 5------ 4------|
G|---- 4-- 2------ 6------ 6------| 6---------- 4-- 4------ 1------|
D|---- 2-- 4-- 4------ 6------ 6--|-- 4-------- 4------ 2-- 1------|
A| 4------ 3----------------------|------------------------ 1------|
E|---------------- 7------ 6------| 5------ 4------ 3------ 2-- 1--|
http://classicalguitartablature.blogspot.com/
E|-------------------------- 2----|--------------------------------|
B|---------------- 2-- 5---- 4----| 5------------------------------|
G| 2---------- 4-- 2-- 4---- 2----| 4-- 4---------- 4-------- 4-- 2|
D|---- 2------ 4-- 4---- 3--------| 6-- 4------ 4---- 4------ 3----|
A|------ 6-------- 5---- 4-- 3----|--------------------------------|
E| 0------------------------------| 7------ 5------ 4---- 3------ 2|
http://classicalguitartablature.blogspot.com/
E|--------------------------------|--------------------------------|
B|-------------- 2------ 5---- 4--| 5------------ 3----------------|
G|---------- 2-- 2------ 6---- 5--| 4-- 4------ 3 2---------- 1-- 4|
D|-- 2------ 0-- 2------ 4---- 4--| 2-- 2------ 5---- 0-------- 3--|
A|---------------------- 6---- 5--| 4------ 3---- 2------ 1--------|
E|------ 1------ 0----------------|------------------------------ 5|
http://classicalguitartablature.blogspot.com/
E|--------------------------------|--------------------------------|
B|-------------- 2---- 5---- 7----| 5------------------------------|
G|---------- 4-- 4---- 2---- 7----| 6-- 4------ 4-------- 4--------|
D|-- 4------ 4-- 2---- 2---- 6----| 7-- 4------ 4------ 4---- 2----|
A|-------------------------- 8----| 7------ 6------ 5---- 4------ 3|
E|------ 4------ 3---- 2----------|--------------------------------|
http://classicalguitartablature.blogspot.com/
E|--------------------------------|--------------------------------|
B|-------------------- 5---- 4----| 5------------------------ 1----|
G|-- 4------ 1---- 6-- 5---- 4----| 4---------- 3 2---------- 2----|
D|-- 2------ 2---- 6-- 4---- 4----|---- 2---- 4-------- 3---- 2----|
A|------ 2------------------------|--------------------------------|
E|---------------- 6-- 5------ 4--| 3------ 2---- 1-------- 0------|
http://classicalguitartablature.blogspot.com/
E|-------------------------- 2----|--------------------------------|
B|-------------- 2---- 5---- 0-- 5|--------------------------------|
G| 6-------- 5-- 4---- 2---- 1----| 6-- 4------ 4------ 4-- 4---- 9|
D|---- 7---- 4-- 2---- 4---- 2----| 6-- 4------ 4------ 4------ 2 7|
A| 6---- 5-------- 4---- 3---- 2--|--------------------------------|
E|--------------------------------| 6------ 5------ 4------ 3------|
http://classicalguitartablature.blogspot.com/
E|--------------------------------|--------------------------------|
B|-------------- 2---- 5------ 4--| 5---- 5---- 5-- 5------ 5-- 5--|
G|---- 7 6-- 4---- 2-- 2------ 6--| 6---- 5---- 4-- 4------ 5-- 5--|
D|---- 9 7-- 7---- 4-- 2------ 7--| 6---- 4---- 4-- 3------ 7-- 7--|
A| 9-- 8 7---- 6-- 5-- 4-- 3------|------------------------ 9-- 8--|
E|---------------------------- 7--| 6------ 5-- 4-- 3--------------|
http://classicalguitartablature.blogspot.com/
E|--------------------------------|--------------------------------|
B| 5------------------------------|--------------------------------|
G| 4------------------------------|--------------------------------|
D| 6------------------------------|--------------------------------|
A| 7------------------------------|--------------------------------|
E|--------------------------------|--------------------------------|
http://classicalguitartablature.blogspot.com/

0 ความคิดเห็น:

แสดงความคิดเห็น