To celebrate the anniversary, I am giving you (finally...) : iPhone LickByNeck !!!!!!

Let's call the whole things off

Crooner's favorite fingerstyle chord melody guitar arrangement played in the key of E


http://classicalguitartablature.blogspot.com/
Let's Call The Whole Thing Off played in the key of E.
http://classicalguitartablature.blogspot.com/
E|--------------------------------|------------ 4------ 4----------|
B| 5-- 5-- 5---- 5------ 5------ 5|---- 5------ 2-------- 2------ 5|
G| 4-- 4---- 4-- 4------ 4--------|---- 3------ 2------ 2----------|
D| 6-- 4---- 4-- 6------ 3------ 2|---- 3------------------------ 6|
A| 7---- 6-- 6-- 4----------------|---- 3------ 2---------------- 7|
E|---------------------- 3------ 2|--------------------------------|
http://classicalguitartablature.blogspot.com/
E|--------------------------------|-------------- 4---- 4------ 7--|
B|------ 5------ 5---- 5------ 5--|---- 5-- 5---- 2---- 2------ 7--|
G| 4---- 4-------- 4-- 4-------- 2|---- 2-- 3---- 2---- 2------ 9--|
D|------ 4------ 6---- 3------ 2--|---- 2-- 3----------------------|
A|------ 6------ 4----------------|-------- 3---- 2---- 2----------|
E|-------------------- 3------ 2--|---- 2---------------------- 7--|
http://classicalguitartablature.blogspot.com/
E|------------ 7-------------- 7--|------------ 7 7-------------- 7|
B|------------ 7-------------- 5--|---- 5------ 5 5---- 5-------- 4|
G|---- 9------ 9------ 9------ 6--|------------ 5 5-------------- 4|
D|--------------------------------|--------------------------------|
A|------------ 7------------------|------------ 5------------------|
E|---------------------------- 5--|--------------------------------|
http://classicalguitartablature.blogspot.com/
E|------ 5-- 4---------------- 2--|-- 2----------------------------|
B|------ 4-- 4-- 7---- 5------ 2--|---- 2-------------- 5-------- 5|
G|------ 4-- 4-- 4---- 4------ 2--|---- 2-------------- 6-------- 4|
D|-------------- 6---- 4----------|-------------------- 7-------- 6|
A|-------------- 4----------------|--------------------------------|
E| 4-------------------------- 2--|------ 4------ 7----------------|
http://classicalguitartablature.blogspot.com/
E|--------------------------------|-------------- 4---- 4----------|
B|---- 5-- 5---- 5---- 5------ 5--|------ 5------ 2---- 2------ 5--|
G|---- 4 4-------- 4---- 4---- 2--|-------- 3---- 2---- 2-------- 4|
D|---- 6 4------ 6---- 3------ 2--|------ 3-------------------- 6--|
A| 7------ 6---- 4----------------|-------- 3---- 2---- 2-------- 7|
E|-------------------- 3------ 2--|--------------------------------|
http://classicalguitartablature.blogspot.com/
E|--------------------------------|-------------- 4---- 4------ 7--|
B|---- 5 5------ 5---- 5------ 5--|---- 5 5------ 2-------- 2-- 7--|
G|------ 4------ 4------ 4--------|-------- 3---- 2---- 2------ 7--|
D|---- 4 4------ 6---- 3------ 2--|------ 3------------------------|
A|-------- 6---- 4----------------|------ 3------ 2----------------|
E|-------------------- 3------ 2--|---------------------------- 7--|
http://classicalguitartablature.blogspot.com/
E|------------ 7-------------- 7--| 7---------- 7---------------- 7|
B|------------ 7-------------- 5--| 5-- 5------ 5------ 5--------10|
G|---- 9------ 7------ 9------ 6--| 6---------- 5---------------- 9|
D|--------------------------------|--------------------------------|
A|------------ 7------------------|------------ 5-------------- 9--|
E|---------------------------- 5--|--------------------------------|
http://classicalguitartablature.blogspot.com/
E|--------------------------------|--------------------------------|
B|------10-- 9-- 7------ 7------ 5|--------------------------------|
G|------ 9---- 9 8-------- 5------| 4-- 4--------------------------|
D|---------- 8-- 7------ 7------ 6|--------------------------------|
A|---------------------- 6------ 7|------ 6------ 4----------------|
E|------------ 7 7----------------|---------------------- 7------ 6|
http://classicalguitartablature.blogspot.com/
E|---- 9--------------------------| 7-- 6------ 6-- 7---- 7---- 4--|
B|---- 9-------------- 9----------| 7------ 9------ 4---- 4---- 4--|
G|---- 9-------------- 9----------| 6-------------- 4---- 4---- 4--|
D|-------------------- 8----------|--------------------------------|
A|------------------------------ 6|---------------------------- 4--|
E|---------------- 9--------------|---------------- 4--------------|
http://classicalguitartablature.blogspot.com/
E|-- 4-- 4------ 5---- 5---- 2----|------ 2------------------------|
B|------ 4------ 2---- 2----------|------ 2------ 2---- 5----------|
G|-------------- 2---- 2---- 2----|-- 2------ 2--------------------|
D|--------------------------------|-- 2----------------------------|
A|-------------------------- 2----|--------------------------------|
E|-------------- 2----------------|------------------------------ 6|
http://classicalguitartablature.blogspot.com/
E|---- 9--------------------------| 7-- 6------ 6 7---- 7------ 4--|
B|---- 9-------------- 9----------| 7-- 7 9------------ 4------ 4--|
G|---- 9------------------ 9------| 6------------ 4---- 4------ 4--|
D|-------------------- 8----------|--------------------------------|
A|------------------------------ 6|---------------------------- 4--|
E|-------------- 9----------------|---------------- 4--------------|
http://classicalguitartablature.blogspot.com/
E|---- 4------ 5------ 5------ 2--|------ 2------------------------|
B|---- 4------ 2------ 2------ 2--|-------------- 5------ 7--------|
G|---- 4------ 2------ 2------ 2--|---- 2-------- 2------ 4--------|
D|--------------------------------|-------------- 2------ 4--------|
A|---------------------------- 2--|-------------- 4------ 6--------|
E|------------ 2------------------|--------------------------------|
http://classicalguitartablature.blogspot.com/
E|--------------------------------|-------------- 4---- 4----------|
B| 5---- 5------ 5---- 5------ 5--|---- 5 5------ 2---- 2------ 5--|
G| 4------ 4------ 4-- 4----------|-------- 3---- 2---- 2----------|
D| 6------ 4---- 6---- 3------ 2--|------ 3-------------------- 6--|
A| 7------ 6------ 4--------------|-------- 3---- 2------------ 7--|
E|-------------------- 3------ 2--|--------------------------------|
http://classicalguitartablature.blogspot.com/
E|--------------------------------|-------------- 4---- 4------ 7--|
B|---- 5---- 5-- 5---- 5------ 5--|------ 5------ 2---- 2-------- 7|
G| 4-- 4---- 4-- 4------ 4---- 2--|------ 3------ 2---- 2------ 7--|
D|---- 6---- 4-- 6---- 3------ 2--|------ 3------------------------|
A|------ 6------ 4----------------|------ 3------ 2---- 2----------|
E|-------------------- 3------ 2--|---------------------------- 7--|
http://classicalguitartablature.blogspot.com/
E|------------ 7-------------- 7--|------------ 7 7------------ 7--|
B|------------ 7-------------- 5--|---- 5------ 5 5---- 5------10--|
G|---- 9------ 7------ 9------ 6--|------------ 5 5------------ 9--|
D|--------------------------------|--------------------------------|
A|------------ 7------------------|------------ 5-- 5---------- 9--|
E|---------------------------- 5--|--------------------------------|
http://classicalguitartablature.blogspot.com/
E|--------------------------------|------------------------------ 9|
B|----10---- 9-- 7------ 5------ 7|---- 7-------------- 5--------10|
G|---- 9------ 9 8------ 4--------| 4------------------ 4-------- 9|
D|------------ 8 7------ 4--------| 4---- 4------------ 3----------|
A|--------------------------------|-------- 5------ 4--------------|
E|------------ 8 7------ 5--------| 4---------------------- 3------|
http://classicalguitartablature.blogspot.com/
E|--------------------------------|------------------------------ 9|
B|------12----10 9------ 9------ 5|------ 5------ 5------ 5------10|
G|-------- 9-- 9 8-------- 8------| 6---- 5------ 4------ 4------ 9|
D|------11---- 8 7------ 7------ 6|------ 5------ 4------ 3--------|
A| 9-------------------- 8--------|------------------------------ 9|
E|------------ 8 7----------------| 6---- 5------ 4------ 3--------|
http://classicalguitartablature.blogspot.com/
E|------ 9------ 7---- 5------ 4--|------ 4------------------------|
B|------10------ 4---- 5------ 5--|------ 5------ 9------ 9------ 5|
G|------ 9------ 4---- 6------ 6--|---- 6-------- 8-------- 8------|
D|--------------------------------|-------------- 7------ 7------ 3|
A|--------------------------------|---------------------- 8------ 4|
E|-------------- 4---- 5------ 6--|-------------- 7----------------|
http://classicalguitartablature.blogspot.com/
E|--------------------------------|---------------- 0--------------|
B|------ 5------ 2---- 2----------|-------------- 0----------------|
G| 4---- 4-------- 1-- 1------ 3--|-------------- 1----------------|
D|------ 3------ 0---- 0------ 3--|-------------- 2----------------|
A|---------------- 1---------- 2--|------------ 2------------------|
E|---------------------------- 3--|------------ 0------------------|
http://classicalguitartablature.blogspot.com/
E|--------------------------------|--------------------------------|
B|--------------------------------|--------------------------------|
G|--------------------------------|--------------------------------|
D|--------------------------------|--------------------------------|
A|--------------------------------|--------------------------------|
E|--------------------------------|--------------------------------|
http://classicalguitartablature.blogspot.com/

0 ความคิดเห็น:

แสดงความคิดเห็น