To celebrate the anniversary, I am giving you (finally...) : iPhone LickByNeck !!!!!!

Listen To The Mocking Bird (EASY)

Traditional tune chord melody guitar easy arrangement played in the key of G.
http://classicalguitartablature.blogspot.com/

http://classicalguitartablature.blogspot.com/
Listen To The Mocking Bird played in the key of G.
http://classicalguitartablature.blogspot.com/
E| 8--12--12--1212----1010--------| 3------------------------------|
B| 8------ 8-- 810----1010--------| 3-------------------------- 3 3|
G| 9------ 9-- 911----1111----11--| 4---------- 4------ 4------ 4--|
D|--------------------------------|---- 5------ 5------ 5------ 5 0|
A|--------10--------------12------|-------- 5-------------- 5------|
E| 8--------------10--------------| 3-------------- 3--------------|
http://classicalguitartablature.blogspot.com/
E|-------------- 2------ 0--------|---- 3--------------------------|
B|---------- 3---------------- 3 3|------------------------ 5-- 3--|
G|-- 2-------------- 2---------- 4|------------ 4------ 4----------|
D|---------------- 0--------------| 5------------------------------|
A|------ 0-------------- 0--------|-------- 5-------------- 5------|
E|--------------------------------| 3-------------- 3--------------|
http://classicalguitartablature.blogspot.com/
E|---- 2---------------- 0--------|---- 3--------------------------|
B| 3---------- 3---- 3-------- 3--| 3------------------------ 3-- 3|
G| 2---------------- 2------------| 4---------- 4------ 4---- 4----|
D| 0-------------- 0--------------| 5---------- 5------ 5---- 5-- 0|
A|-------- 0------------ 0--------|------ 5-------------- 5--------|
E|--------------------------------| 3------------ 3----------------|
http://classicalguitartablature.blogspot.com/
E|-------------- 2------ 0---- 2--| 5-- 3--------------------------|
B|---------- 3--------------------| 3-- 3------------------ 5-- 3--|
G|-- 2---------------- 2----------| 4-- 4------ 4------ 4-- 4------|
D|-------------- 0----------------|--------------------------------|
A|------ 0---------------- 0------|-------- 5-------------- 5------|
E|--------------------------------| 3-------------- 3--------------|
http://classicalguitartablature.blogspot.com/
E|---- 2------------------ 0-- 2--| 5-- 3---------------- 7-- 7----|
B| 3---------- 3-------- 3--------| 3-- 3---------------- 8--------|
G| 2------------------ 2----------| 4-- 4------ 4------ 4 7--------|
D| 0-------------- 0--------------|--------------------------------|
A|-------- 0------------ 0--------|-------- 5------------ 5--------|
E|--------------------------------| 3-------------- 3--------------|
http://classicalguitartablature.blogspot.com/
E| 7-- 5-- 5------------ 5---- 5 5|---- 3-- 3------------ 7-- 7----|
B| 7------ 7------------ 7---- 7 3|---- 3-- 3------------ 8--------|
G| 7---------- 7------ 7-------- 4|------------ 4------ 4 7--------|
D| 0-------------- 0--------------|--------------------------------|
A|-------- 0-------------- 0------|-------- 5------------ 5--------|
E|--------------------------------| 3-------------- 3--------------|
http://classicalguitartablature.blogspot.com/
E| 7 5---- 5------ 5-- 8-- 7-- 5--| 7---------------------- 7-- 7--|
B| 7 7---- 7---- 7-------- 7-- 7--| 8---------------------- 8-- 8--|
G| 7-- 7------ 7-- 7------ 7-- 7--| 7---------- 7---------- 7-- 7--|
D| 0-------------- 0--------------|---- 9------ 9------ 9----------|
A|-------- 0-------------- 0------|10--------------10--------------|
E|--------------------------------|--------10--------------10------|
http://classicalguitartablature.blogspot.com/
E| 7-- 5-- 5------------ 5---- 5 5|---- 3-- 3------------ 7-- 7----|
B| 7------ 7------------ 7---- 7 3|---- 3-- 3------------ 8--------|
G| 7---------- 7------ 7-------- 4|------------ 4------ 4 7--------|
D| 0-------------- 0--------------|--------------------------------|
A|-------- 0-------------- 0------|-------- 5------------ 5--------|
E|--------------------------------| 3-------------- 3--------------|
http://classicalguitartablature.blogspot.com/
E| 8--12--12--1212----1010--------| 3------------------------------|
B| 8------ 8-- 810----1010--------| 3-------------------------- 3 3|
G| 9------ 9-- 911----1111----11--| 4---------- 4------ 4------ 4--|
D|--------------------------------|---- 5------ 5------ 5------ 5 0|
A|--------10--------------12------|-------- 5-------------- 5------|
E| 8--------------10--------------| 3-------------- 3--------------|
http://classicalguitartablature.blogspot.com/
E|-------------- 2------ 0--------|---- 3--------------------------|
B|---------- 3---------------- 3 3|------------------------ 5-- 3--|
G|-- 2-------------- 2---------- 4|------------ 4------ 4----------|
D|---------------- 0--------------| 5------------------------------|
A|------ 0-------------- 0--------|-------- 5-------------- 5------|
E|--------------------------------| 3-------------- 3--------------|
http://classicalguitartablature.blogspot.com/
E|---- 2---------------- 0--------|---- 3--------------------------|
B| 3---------- 3---- 3-------- 3--| 3------------------------ 3-- 3|
G| 2---------------- 2------------| 4---------- 4------ 4---- 4----|
D| 0-------------- 0--------------| 5---------- 5------ 5---- 5-- 0|
A|-------- 0------------ 0--------|------ 5-------------- 5--------|
E|--------------------------------| 3------------ 3----------------|
http://classicalguitartablature.blogspot.com/
E|-------------- 2------ 0---- 2--| 5-- 3--------------------------|
B|---------- 3--------------------| 3-- 3------------------ 5-- 3--|
G|-- 2---------------- 2----------| 4-- 4------ 4------ 4-- 4------|
D|-------------- 0----------------|--------------------------------|
A|------ 0---------------- 0------|-------- 5-------------- 5------|
E|--------------------------------| 3-------------- 3--------------|
http://classicalguitartablature.blogspot.com/
E|---- 2------------------ 0-- 2--| 5-- 3---------------- 7-- 7----|
B| 3---------- 3-------- 3--------| 3-- 3---------------- 8--------|
G| 2------------------ 2----------| 4-- 4------ 4------ 4 7--------|
D| 0-------------- 0--------------|--------------------------------|
A|-------- 0------------ 0--------|-------- 5------------ 5--------|
E|--------------------------------| 3-------------- 3--------------|
http://classicalguitartablature.blogspot.com/
E| 7-- 5-- 5------------ 5---- 5 5|---- 3-- 3------------ 7-- 7----|
B| 7------ 7------------ 7---- 7 3|---- 3-- 3------------ 8--------|
G| 7---------- 7------ 7-------- 4|------------ 4------ 4 7--------|
D| 0-------------- 0--------------|--------------------------------|
A|-------- 0-------------- 0------|-------- 5------------ 5--------|
E|--------------------------------| 3-------------- 3--------------|
http://classicalguitartablature.blogspot.com/
E| 7 5---- 5------ 5-- 8-- 7-- 5--| 7---------------------- 7-- 7--|
B| 7 7---- 7---- 7-------- 7-- 7--| 8---------------------- 8-- 8--|
G| 7-- 7------ 7-- 7------ 7-- 7--| 7---------- 7---------- 7-- 7--|
D| 0-------------- 0--------------|---- 9------ 9------ 9----------|
A|-------- 0-------------- 0------|10--------------10--------------|
E|--------------------------------|--------10--------------10------|
http://classicalguitartablature.blogspot.com/
E| 7-- 5-- 5------------ 5---- 5 5|---- 3-- 3------------ 7-- 7----|
B| 7------ 7------------ 7---- 7 3|---- 3-- 3------------ 8--------|
G| 7---------- 7------ 7-------- 4|------------ 4------ 4 7--------|
D| 0-------------- 0--------------|--------------------------------|
A|-------- 0-------------- 0------|-------- 5------------ 5--------|
E|--------------------------------| 3-------------- 3--------------|
http://classicalguitartablature.blogspot.com/
E| 8--12--12--1212----1010--------|--------------------------------|
B| 8------ 8-- 810----1010------ 8|---------------------------- 8--|
G| 9------ 9-- 911----1111----11 7|------------ 7------ 7------ 7--|
D|--------------------------------|---- 9------ 9------ 9----------|
A|--------10--------------12----10|----------------10--------------|
E| 8--------------10--------------|--------10--------------10------|
http://classicalguitartablature.blogspot.com/
E| 8--12--12--1212----1010--------|--------------------------------|
B| 8------ 8-- 810----1010------ 8|---------------------------- 8--|
G| 9------ 9-- 911----1111----11 7|------------ 7------ 7------ 7--|
D|--------------------------------|---- 9------ 9------ 9----------|
A|--------10--------------12----10|----------------10--------------|
E| 8--------------10--------------|--------10--------------10------|
http://classicalguitartablature.blogspot.com/
E| 8--12--12--1212----1010--------|--------------------------------|
B| 8------ 8-- 810----1010------ 8|-------- 8------ 3--------------|
G| 9------ 9-- 911----1111----11--| 7------ 7------ 4--------------|
D|--------------------------------| 9------ 9------ 5--------------|
A|--------10--------------12------|10------------------------------|
E| 8--------------10--------------|--------10------ 3-- 2----------|
http://classicalguitartablature.blogspot.com/

0 ความคิดเห็น:

แสดงความคิดเห็น