To celebrate the anniversary, I am giving you (finally...) : iPhone LickByNeck !!!!!!

Listen To The Mocking Bird (Intermediate)

Traditional tune chord melody guitar intermediate arrangement played in the key of G.
http://classicalguitartablature.blogspot.com/

http://classicalguitartablature.blogspot.com/
Listen To The Mocking Bird played in the key of G.
http://classicalguitartablature.blogspot.com/
E| 8--1212----12--1210--10--------|--------------------------------|
B|10----------1013------10------ 8|-------------------------- 3-- 3|
G| 9------ 9-- 9--12----11--11-- 7|------------ 7------ 5------ 5--|
D|--------------------------10----|---- 5------ 6------ 5------ 3--|
A| 8------ 9------10---- 0--------|--------------------------------|
E|--------------------------------| 7------ 6------ 5---- 4------ 5|
http://classicalguitartablature.blogspot.com/
E|---------------- 2--------------|--------------------------------|
B|------------ 3-- 1------ 5-- 3 3|---- 8---------------- 5------ 3|
G| 5---------- 5------ 2-- 2---- 4|---- 5------------ 6-- 7---- 7 2|
D|-- 5-------- 3---------- 4------| 5-- 5------ 5------ 8 5--------|
A|--------------------------------|--------------------------------|
E|-------- 4------ 3------ 2------| 3------ 5------ 6---- 7--------|
http://classicalguitartablature.blogspot.com/
E|------------------------ 0------|---- 3--------------------------|
B|---- 7------------------ 3-- 3--| 3------------------------ 3-- 3|
G|---- 4-------------- 5-- 0-- 0--| 2---------- 3------ 2---- 4-- 5|
D| 4-- 5------ 5------ 5------ 2--| 1---------- 2------ 2---- 3----|
A| 3------ 4------ 5--------------|--------------------------------|
E|------------------------ 0------| 1------ 2------ 3------ 4---- 5|
http://classicalguitartablature.blogspot.com/
E|-------------- 2-------------- 5|------------------------ 0------|
B|---------- 3-- 3------ 5---- 7 3|---- 8------------------ 3-- 3--|
G|---------- 2-- 2------ 4------ 4|---- 5------ 5------ 7-- 2-- 2--|
D|-- 5------ 3-------- 4 5--------|---- 7------ 7------ 5------ 0--|
A|------ 2-------- 3---- 4--------| 5------ 6------ 7--------------|
E|--------------------------------|------------------------ 2------|
http://classicalguitartablature.blogspot.com/
E|------------------------------ 5|---- 3---------------- 7-- 7-- 7|
B| 3-- 7---------------------- 7 3|---- 3---------------- 6-- 6-- 5|
G| 5-- 5------ 5---- 7-- 9--------| 4-- 0------ 0------ 2 4-- 4-- 5|
D| 4-- 7------ 7------ 6-- 7------|------------ 2------ 2----------|
A|--------------------------------| 5------------------------------|
E| 4------ 5------ 7------ 8------|---------------- 2---- 4------ 5|
http://classicalguitartablature.blogspot.com/
E|-- 5----------------------------|------ 3-------------- 7---- 7 7|
B|-- 5----10----------10--10--1010|---- 8 0------------ 3 5---- 5 5|
G|---- 5 7------------ 9-- 9---- 9|------ 0------------ 2 5---- 5 5|
D|------ 7---- 7------ 9-- 9---- 9|------------ 0------ 0----------|
A|--------------------------------|--------------------------------|
E|-------- 7---- 8-------- 9----10|------ 0-------- 2------ 3------|
http://classicalguitartablature.blogspot.com/
E|-- 5-- 5------------ 8 7--------| 7-------------------- 7---- 7 7|
B|-- 5-- 8------10------10----10--| 8-------------------- 5---- 5 5|
G|-- 5-- 7------ 9------ 9---- 9--|---- 7------ 7------ 2 5---- 5 5|
D|------------ 510---------- 7----|-------------------- 0----------|
A|--------------------------------| 5------------------------------|
E| 5---- 7------ 8------ 9--------|------ 0------ 2-------- 3---- 5|
http://classicalguitartablature.blogspot.com/
E|-- 5---- 5----------------------|------------------------ 7-- 7--|
B|-- 5-- 8----------------10--10--|10-- 8-- 8-------------- 8-- 8--|
G|-- 5---- 7-------------- 8------| 9------ 7---------- 5-- 7-- 7--|
D|------------ 5------ 510--------| 9---------- 5------ 7----------|
A|--------------------------------|-------- 5------ 6------ 7------|
E|-------- 6------ 7---- 8--------| 9------------------------------|
http://classicalguitartablature.blogspot.com/
E| 8--1212----12--1210--10--------|--------------------------------|
B|10----------1013------10------ 8|-------------------------- 3-- 3|
G| 9------ 9-- 9--12----11--11-- 7|------------ 7------ 5------ 5--|
D|--------------------------10----|---- 5------ 6------ 5------ 3--|
A| 8------ 9------10---- 0--------|--------------------------------|
E|--------------------------------| 7------ 6------ 5---- 4------ 5|
http://classicalguitartablature.blogspot.com/
E|---------------- 2--------------|--------------------------------|
B|------------ 3-- 1------ 5-- 3 3|---- 8---------------- 5------ 3|
G| 5---------- 5------ 2-- 2---- 4|---- 5------------ 6-- 7---- 7 2|
D|-- 5-------- 3---------- 4------| 5-- 5------ 5------ 8 5--------|
A|--------------------------------|--------------------------------|
E|-------- 4------ 3------ 2------| 3------ 5------ 6---- 7--------|
http://classicalguitartablature.blogspot.com/
E|------------------------ 0------|---- 3--------------------------|
B|---- 7------------------ 3-- 3--| 3------------------------ 3-- 3|
G|---- 4-------------- 5-- 0-- 0--| 2---------- 3------ 2---- 4-- 5|
D| 4-- 5------ 5------ 5------ 2--| 1---------- 2------ 2---- 3----|
A| 3------ 4------ 5--------------|--------------------------------|
E|------------------------ 0------| 1------ 2------ 3------ 4---- 5|
http://classicalguitartablature.blogspot.com/
E|-------------- 2-------------- 5|------------------------ 0------|
B|---------- 3-- 3------ 5---- 7 3|---- 8------------------ 3-- 3--|
G|---------- 2-- 2------ 4------ 4|---- 5------ 5------ 7-- 2-- 2--|
D|-- 5------ 3-------- 4 5--------|---- 7------ 7------ 5------ 0--|
A|------ 2-------- 3---- 4--------| 5------ 6------ 7--------------|
E|--------------------------------|------------------------ 2------|
http://classicalguitartablature.blogspot.com/
E|------------------------------ 5|---- 3---------------- 7-- 7-- 7|
B| 3-- 7---------------------- 7 3|---- 3---------------- 6-- 6-- 5|
G| 5-- 5------ 5---- 7-- 9--------| 4-- 0------ 0------ 2 4-- 4-- 5|
D| 4-- 7------ 7------ 6-- 7------|------------ 2------ 2----------|
A|--------------------------------| 5------------------------------|
E| 4------ 5------ 7------ 8------|---------------- 2---- 4------ 5|
http://classicalguitartablature.blogspot.com/
E|-- 5----------------------------|------ 3-------------- 7---- 7 7|
B|-- 5----10----------10--10--1010|---- 8 0------------ 3 5---- 5 5|
G|---- 5 7------------ 9-- 9---- 9|------ 0------------ 2 5---- 5 5|
D|------ 7---- 7------ 9-- 9---- 9|------------ 0------ 0----------|
A|--------------------------------|--------------------------------|
E|-------- 7---- 8-------- 9----10|------ 0-------- 2------ 3------|
http://classicalguitartablature.blogspot.com/
E|-- 5-- 5------------ 8 7--------| 7-------------------- 7---- 7 7|
B|-- 5-- 8------10------10----10--| 8-------------------- 5---- 5 5|
G|-- 5-- 7------ 9------ 9---- 9--|---- 7------ 7------ 2 5---- 5 5|
D|------------ 510---------- 7----|-------------------- 0----------|
A|--------------------------------| 5------------------------------|
E| 5---- 7------ 8------ 9--------|------ 0------ 2-------- 3---- 5|
http://classicalguitartablature.blogspot.com/
E|-- 5---- 5----------------------|------------------------ 7-- 7--|
B|-- 5-- 8----------------10--10--|10-- 8-- 8-------------- 8-- 8--|
G|-- 5---- 7-------------- 8------| 9------ 7---------- 5-- 7-- 7--|
D|------------ 5------ 510--------| 9---------- 5------ 7----------|
A|--------------------------------|-------- 5------ 6------ 7------|
E|-------- 6------ 7---- 8--------| 9------------------------------|
http://classicalguitartablature.blogspot.com/
E| 8--1212----12--1210--10--------|-------------------------- 7----|
B|10----------1013------10------ 8|-------------------------- 6----|
G| 9------ 9-- 9--12----11--11-- 7|------------ 7------ 5---- 5----|
D|--------------------------10----|---- 5------ 6------ 5----------|
A| 8------ 9------10---- 0--------|--------------------------------|
E|--------------------------------| 7------ 6------ 5---- 4--------|
http://classicalguitartablature.blogspot.com/
E| 8----12------12------12------12|--------10----10----------------|
B| 8----10------10------13------13|--------12----10------ 7--------|
G| 9---- 9------------ 912----1212|------------12------ 9 8--------|
D|----10----10--------------------|--11------------------------ 7--|
A|10------ 9---- 8----------------|--------------------------------|
E|----------------------12------11|--------10------ 9---- 8--------|
http://classicalguitartablature.blogspot.com/
E|------------------------ 3------|-- 3----------------------------|
B| 8------ 8------ 8------ 6------| 3------------------------------|
G| 7------ 7------ 5------ 5------| 2------------------------------|
D| 5------ 6------ 5--------------|--------------------------------|
A|--------------------------------|--------------------------------|
E| 7------ 6------ 5------ 4---- 3|--------------------------------|
http://classicalguitartablature.blogspot.com/

0 ความคิดเห็น:

แสดงความคิดเห็น