To celebrate the anniversary, I am giving you (finally...) : iPhone LickByNeck !!!!!!

Little Wing

Jimi Hendrix's classic fingerstyle solo guitar arrangement played in the key of Em.


http://classicalguitartablature.blogspot.com/
Litle Wing played in the key of Em.
Classical Guitar Tablature http://classicalguitartablature.blogspot.com/
E|--------------------------1211--|--------------------------------|
B|--------------------------1211 5|--------------------------------|
G|--------------------------------|------------------------ 5 5----|
D|--------------------------------|-------------------- 5 5 5 5 7--|
A|--------------------------------|---------------------- 5 5------|
E|--------------------------------| 0-------------- 5 7 5-------- 3|
Classical Guitar Tablature http://classicalguitartablature.blogspot.com/
E|-------- 5 3--------------------|--------------------------------|
B|-------- 3 3 3 3 3 3---- 3 3 3--|--------------------------------|
G|-------- 4-- 4 4 4 5-- 4 5 4 0--|------------ 5-- 5 5------------|
D|---- 5--------------------------|---------------- 5 5 7-- 5 5----|
A|--------------------------------|-------- 5 7-- 7-------- 7 5----|
E|--------------------------------| 5------------------------ 7-- 6|
Classical Guitar Tablature http://classicalguitartablature.blogspot.com/
Classical Guitar Tablature http://classicalguitartablature.blogspot.com/
E|--------------------------------|------ 9-- 7-- 9-- 7------------|
B|-------- 8 8-------- 8 8 8 8 8--|---- 7 7-- 7-- 710 7------------|
G|-------- 7-- 7------ 7 7 7 7 7--|---- 7-- 7 7-- 7 7 7 7---- 7----|
D|-------- 9-- 9------ 7 9 7 7 7--|---- 7---------- 7-- 9---- 8----|
A|---- 7-------- 7 710------10 7--|------------------------ 8------|
E|--------------------------------| 7-------------------- 6------ 5|
Classical Guitar Tablature http://classicalguitartablature.blogspot.com/
E|--------------------------------|-------- 5-- 5-- 3--------------|
B|--------------------------------|---- 3-- 5-- 5-- 1---- 1--------|
G|---- 5-- 5 5 5 5 5-- 5 5 5------|---- 4---------- 2-- 2------ 2--|
D|---- 7-- 7 7 5 5 5-- 5 7 5------|---- 5------------ 3------ 3----|
A|---- 7-------- 8 7--------------|------------------------------ 3|
E|---------------------------- 7 6| 3-------------- 1--------------|
Classical Guitar Tablature http://classicalguitartablature.blogspot.com/
E|--------------------------------|------------------------------ 0|
B|------ 1-- 3 1-- 3---- 3------ 3|-- 3-- 3-- 3-- 3------ 0-- 3-- 0|
G|---- 0 0-- 0---- 2-- 2 2--------| 2 2-- 2-- 2-- 2------ 2-- 2-- 0|
D|-- 2------ 2------ 4------ 4----|------ 5-- 2-- 4------ 2---- 1--|
A|---------------- 5--------------|-------------- 5----------------|
E|--------------------------------|---------------------- 2---- 1 0|
Classical Guitar Tablature http://classicalguitartablature.blogspot.com/
E|-- 0----------------------------|--------------------------------|
B|------ 0-- 1------------ 3-- 3--| 3 0---------- 3------ 0--------|
G|---------- 2---- 4 4---- 5-- 5--| 0 0-- 0---- 2------ 0----------|
D|------------ 1-- 2-- 2---- 5-- 4| 0-------- 0------ 0---- 5-- 5--|
A|--------------------------------|------------------------ 5-- 4--|
E|-------- 2------ 3---- 3 5-- 4--| 3------ 2------ 0--------------|
Classical Guitar Tablature http://classicalguitartablature.blogspot.com/
E|--------------------------------|--------------------------------|
B|-- 3---------- 0------ 1--------|--------------------------------|
G| 4-- 4 2---- 2------ 0-- 0 2 0--|---------- 4-- 4---- 4------ 2--|
D| 2-- 2---- 0------ 2---- 0 0 0--| 2 2---- 5 5------ 5------ 2----|
A| 3------ 2------ 0--------------| 2---- 2 5---- 5-------- 3------|
E|------------------------ 3------| 0------------------------------|
Classical Guitar Tablature http://classicalguitartablature.blogspot.com/
E|--------------------------------|--------------------------------|
B|---- 5-- 3----------------------|-------------- 1 1---- 1-- 3----|
G| 7 7---- 4-- 4 2---- 0-- 4-- 0--| 0-- 0---- 0------ 0---- 5 2----|
D| 7---- 4-- 4------ 0------ 2----|-- 2------ 2------ 2---- 5 4----|
A|--------------------------------| 0---------------------- 5 3----|
E| 7---- 5------ 2------ 4--------|-------- 3------ 0--------------|
Classical Guitar Tablature http://classicalguitartablature.blogspot.com/
E|--------------------------------|--------------------------------|
B| 0-------------- 6 6------------| 1---- 1 1 1 3 0----------------|
G|-- 2 0---------- 5 5-- 5 5 5-- 4| 0 0-- 0 0 0 0 2-- 2-- 2--------|
D|---------------- 7 7-- 5 3 3-- 3| 2---- 2-- 2 2-------- 0-- 4-- 4|
A| 2-- 0---------- 8-- 7-- 5-- 4--| 3-- 2 0-------------- 5-- 3----|
E|-------- 3-- 0------------------|---------- 3-- 2---- 0----------|
Classical Guitar Tablature http://classicalguitartablature.blogspot.com/
E|-------------------------- 3--12|----------------12--10-- 7--10--|
B|------------------ 1-- 3-- 3--12|----------12----12--12--10-- 7--|
G| 8 8-- 4---- 4---- 2-- 2-- 2----|----12----11------10--10 9------|
D| 7 7-- 4---- 4---- 2-- 1--------|--12--12------10---------- 7-- 7|
A|--------------------------------|--------------------------------|
E| 7 7-- 5-------- 2---- 1---- 1 0|------11------10-------- 8------|
Classical Guitar Tablature http://classicalguitartablature.blogspot.com/
E| 7----------12-------- 7--10----| 7-- 5-- 7------ 7-- 7-- 7 5----|
B| 8---- 8------15 8---- 8 7 7----| 5-- 5--1010 810101010-- 5 5-- 8|
G|---- 7----12---- 7-- 7---- 7----| 5------ 9 9 9-- 7 7---- 5 5----|
D|-- 9------14------ 9------ 7-- 7|-- 5-- 5-- 7 7 7------ 9--------|
A|--------12------10------ 9------| 7------------------------------|
E| 7------------------------------|-------- 8------ 7------ 5------|
Classical Guitar Tablature http://classicalguitartablature.blogspot.com/
E|------------ 7------------------|--------10 910 9------ 5-- 5-- 8|
B| 5---- 5 81010--10 8--10--10----| 810----12121212 8---- 7-- 8-- 5|
G| 4 4---- 7 7-- 7-- 9-- 9--------| 7---- 711111111---- 7-- 6 7-- 5|
D|-- 2------ 9-- 9------ 9------ 7| 7-- 7-------- 7-- 7---------- 5|
A|-------- 7----------------------|--------1212-- 9------ 6--------|
E| 3------------10-------- 8------| 7-------------------------- 6 5|
Classical Guitar Tablature http://classicalguitartablature.blogspot.com/
E|-- 7 8 7-- 7--12------1210------|--15--15--15--13----------------|
B|-- 5-- 5-- 8 810--10----12--12--|12--1212--12------13--13------ 5|
G|-- 5 5 5---- 7---- 9----11--11--|12--12121212------12------12-- 5|
D|------------ 7------------10--10|12------12------------------10 5|
A|----------------------------11--|10------10--10------------------|
E|------ 7------ 8--------10------|--------------13------11------11|
Classical Guitar Tablature http://classicalguitartablature.blogspot.com/
E|--------------------------------|------------------------ 0------|
B|-------- 5------ 3---- 3------ 3|-------- 0-- 3-- 5---- 0--------|
G|-- 7 5-- 5 7 5-- 5---- 5-- 5-- 5| 5------ 0-- 5-- 4---- 2--------|
D|-- 5 5-- 5 5 5-- 5---- 5-- 5-- 5|-------- 0-- 5-- 2--------------|
A|-------- 7------ 5--------------| 5------ 3----------------------|
E|--------------------------------|------------ 5 3---- 1----------|

0 ความคิดเห็น:

แสดงความคิดเห็น