To celebrate the anniversary, I am giving you (finally...) : iPhone LickByNeck !!!!!!

Love Me Tender

Elvis' hit fingerstyle solo guitar arrangement played in the key of G.

Love Me Tender played in the key of G.
Classical Guitar Tablature http://classicalguitartablature.blogspot.com/
E| 7------ 7---- 8------ 7--------|---------------- 5------------ 3|
B|----10------10 8---- 8-- 6-- 6--|10-------------- 8------------ 4|
G|-- 7------ 9------ 5------ 7----| 9-- 9-- 9-- 9------ 7------ 5--|
D|--------------------------------|-- 9------ 7------ 5------ 7----|
A| 8------ 7---- 6-------- 5------|--------------------------------|
E|--------------------------------| 9------ 8------ 6------ 5---- 3|
Classical Guitar Tablature http://classicalguitartablature.blogspot.com/
E|------ 2------ 7------ 5--------| 3------------------------------|
B|---- 4------ 110------ 7--------| 3------ 3-------- 3------ 3----|
G|-- 2------ 2-------- 7------ 5--|---- 4------ 2---- 2------ 5 5--|
D|------------------ 9------ 7----|-- 5------ 4-------- 2---- 5 4--|
A|---------------- 8---- 6--------| 5------ 3------ 2--------------|
E|------ 2------------------------|------------------------ 5-- 4--|
Classical Guitar Tablature http://classicalguitartablature.blogspot.com/
E|------ 3-------- 2------ 3------|-------------- 5-------------- 3|
B| 3------ 3------ 0-- 0-- 5-- 5--|10------ 5---- 5-------------- 3|
G| 2-- 2------ 2---- 0------ 4----| 9------ 7---------- 6---- 2-- 2|
D|-- 2------ 2--------------------|-- 7---- 5 5------ 5-------- 2--|
A|------------------------ 5------|--------------------------------|
E| 3------ 2------ 0--------------| 9-- 8-- 7-- 6-- 5---- 3------ 2|
Classical Guitar Tablature http://classicalguitartablature.blogspot.com/
E|---------- 2--------------------|--------------------------------|
B|---- 3---- 1------ 5------ 7----| 8-- 8---------------------- 7--|
G|-- 2------ 2 2---- 5------ 7----| 7-- 7---- 7------ 7-------- 5--|
D|-------------------- 5 7---- 7--| 7-- 7------ 7------ 7------ 7--|
A|-------------- 5----------------|------------------------ 6------|
E|------ 0---------------- 8------| 7------ 8------10--------------|
Classical Guitar Tablature http://classicalguitartablature.blogspot.com/
E|-------------- 2------ 3--------|---------------- 5--------------|
B| 3------ 8---- 5---- 5-- 5-- 510|------ 5-------- 8--------------|
G|---- 0-- 5-- 5---- 4------ 4-- 9|---- 9 7---- 7------ 7---- 6----|
D|-- 0------ 7--------------------|-- 7------ 5------ 5-------- 5--|
A|-------- 6---- 5------ 4--------|--------------------------------|
E| 0---------------------------- 8|------ 7-------- 6---- 5--------|
Classical Guitar Tablature http://classicalguitartablature.blogspot.com/
E| 3------------------------------|---------------------- 3------ 7|
B| 5-- 5---- 7---- 5-------- 7----| 8-- 8---- 8-- 8---- 8 6------ 8|
G|-- 5------ 5---- 5-- 5---- 6----| 7-- 7---- 7-- 6---- 6 5---- 5 7|
D|------------ 4---- 5------ 5 5--| 5-- 5---- 6-- 5---- 5---- 3----|
A|--------------------------------|------------------------------10|
E| 3------ 4------ 5------ 6------| 7------ 6-- 6 5------ 4--------|
Classical Guitar Tablature http://classicalguitartablature.blogspot.com/
E|---------- 7-- 7------ 7------ 7|------------------------------ 7|
B|---- 8---- 8-- 8---- 8 4------ 8|------12------12-------------- 8|
G|---- 7------------ 8-------- 4--|---- 711----11--10--10----10----|
D|-- 9-------- 7------------ 4----|-- 9--10--10------10-------- 9--|
A|------ 9------ 8------ 6------ 7|--------------------------------|
E|--------------------------------|--------11------10---- 9--------|
Classical Guitar Tablature http://classicalguitartablature.blogspot.com/
E|--------------------------------| 7---------------------------- 7|
B|----------10---- 8--------10----| 8-- 8-------------- 8-------- 8|
G|---- 9---- 9---- 5-- 5---- 8----| 7-- 7 7---- 7------ 7---- 5-- 7|
D|-- 9-------- 9---- 5------ 8 8--|-- 9------ 7 7---- 5-------- 7--|
A|---------------- 6------ 8------|10---- 9---- 8 7------ 6--------|
E| 8------ 9----------------------|------------------------------10|
Classical Guitar Tablature http://classicalguitartablature.blogspot.com/
E|------ 7------ 8------ 7--------| 5-------------- 5--------------|
B|---- 8 8------10------ 8--------| 7-- 7---- 5---- 5-- 5-------- 8|
G|---- 7 9---- 9------ 8------ 8--|---- 6---- 2---- 5 5-------- 7 5|
D|-- 9------ 9------10------ 7----|-- 5-------- 2------------ 7----|
A|--------------------------------|------------------------------ 6|
E|------ 9------ 8------ 7--------| 5------ 3------ 1------ 0------|
Classical Guitar Tablature http://classicalguitartablature.blogspot.com/
E|-------------- 7----------------|--------------------------------|
B|------ 7------10--------10---- 8|------ 6---------- 3------ 3----|
G|---- 5 5---- 5------ 7-- 7-- 7 5|---- 5 5---- 5------ 2------ 2--|
D|-- 7------ 5------ 7------ 9----|-- 5------ 3-------- 2----------|
A|------ 5------------------------|--------------------------------|
E|-------------- 8-------- 7---- 5|------ 4------ 3-------- 2------|
Classical Guitar Tablature http://classicalguitartablature.blogspot.com/
E| 7------ 7---- 8------ 7--------|---------------- 5------------ 3|
B|----10------10 8---- 8-- 6-- 6--|10-------------- 8------------ 4|
G|-- 7------ 9------ 5------ 7----| 9-- 9-- 9-- 9------ 7------ 5--|
D|--------------------------------|-- 9------ 7------ 5------ 7----|
A| 8------ 7---- 6-------- 5------|--------------------------------|
E|--------------------------------| 9------ 8------ 6------ 5---- 3|
Classical Guitar Tablature http://classicalguitartablature.blogspot.com/
E|------ 2------ 7------ 5------ 3|-------------- 7----------------|
B|---- 4------ 110------ 7------ 3|------ 7------------ 810--------|
G|-- 2------ 2-------- 7------ 5--|---- 4-- 4-- 4---- 8-- 8---- 8--|
D|------------------ 9------ 7----|-- 5------ 5-------------- 7----|
A|---------------- 8---- 6------ 5|-------- 4----------------------|
E|------ 2------------------------|-------------- 8-------- 7---- 6|
Classical Guitar Tablature http://classicalguitartablature.blogspot.com/
E|-------------- 7---------- 5----| 3-------------- 3------ 3------|
B|-- 8------ 7-- 5---------- 3----| 3-------------- 3------ 3------|
G|-- 7------ 5-------- 5---- 3----| 2-------------- 3------ 3------|
D|---- 6---- 7 7---- 5-------- 2--|-------------------- 5------ 5--|
A|--------------------------------|---------------------- 6------ 5|
E|------ 5-------- 3------ 2------| 1------------ 0----------------|
Classical Guitar Tablature http://classicalguitartablature.blogspot.com/
E|-- 3----------------------------|--------------------------------|
B| 3------------------------------|--------------------------------|
G| 4------------------------------|--------------------------------|
D| 5------------------------------|--------------------------------|
A|--------------------------------|--------------------------------|
E|--------------------------------|--------------------------------|
Classical Guitar Tablature http://classicalguitartablature.blogspot.com/

0 ความคิดเห็น:

แสดงความคิดเห็น