To celebrate the anniversary, I am giving you (finally...) : iPhone LickByNeck !!!!!!

Love Story Theme

Classic movie theme song fingerstyle solo guitar arrangement played in the key of Gm.

Love Story Theme played in the key of Gm.
http://classicalguitartablature.blogspot.com/
E|-------- 3---- 5----------------| 3---------------------- 1------|
B| 4------ 1---- 3------ 7--------| 3-------------- 3-- 4-- 3-- 7--|
G| 5------ 2---- 2------ 5--------| 3-- 2-- 3-- 5-- 3-- 3-- 3-- 5--|
D| 4-------- 1-------- 4---- 7----|---- 4-- 0-- 4-- 3-- 1-- 3-- 7--|
A|---------------------- 6--------| 5-- 3-- 1------------------ 6--|
E| 5-- 4-- 3------ 2--------------|------------ 5-- 3-- 2-- 1------|
http://classicalguitartablature.blogspot.com/
E|------------------------------ 6|---------- 6-- 6----------------|
B| 8------ 1------ 3------------ 3|---- 3 3-- 3---- 8--------------|
G| 5------ 0------ 2---- 2------ 3|---- 3 2-------- 7-- 7---- 7----|
D|---- 7------ 2---- 0------ 0----|------ 2------------------------|
A| 5------------------------------|-------------- 8-------- 7---- 5|
E|-------- 0------ 1---- 2------ 3|------ 2------------------------|
http://classicalguitartablature.blogspot.com/
E|------------ 6-- 6--------------|------------ 5------------------|
B|-- 3-------- 8-- 3-- 3-- 4-- 3--| 1-- 1------ 5--10--------------|
G|-- 3---- 7------ 3-- 3-- 3-- 3--| 2------ 5------ 7---------- 7--|
D|-- 3---- 8---------- 4 3------ 0|-------- 5------10--10------10--|
A|--------------------------------|--------------------------------|
E|-------- 6------ 4---- 3------ 2|------ 0--------10------ 8---- 5|
http://classicalguitartablature.blogspot.com/
E|---------- 5---- 5--------------|---------------- 3--------------|
B|-------- 1------ 3------ 3------|------------ 8-- 3------ 1-- 3--|
G|-- 5---- 2------ 5-- 5-- 5-- 5--| 3---------- 7-- 3------ 1-- 1--|
D|---- 4-- 1-------------- 7------| 3------ 8-- 8---------- 1-- 0--|
A|---------------------- 6--------| 5-- 3------------------------ 6|
E|-------- 3------ 2--------------|-------- 6-- 5-- 3-- 2-- 1-- 0--|
http://classicalguitartablature.blogspot.com/
E|---------- 3---- 3--------------|------------ 2------------------|
B|---------- 3---- 4---- 1--------|------------ 1-- 7--------------|
G|---- 3-- 3 3---- 3-- 3-- 3-- 3--| 2-- 2-- 2-- 2-- 5------ 2------|
D|---- 5-- 3---------- 5-- 1---- 4|-------- 1------ 7------ 4------|
A|-------- 5------ 3------ 1------|-------------- 6---- 5-- 3-- 2--|
E|------------------------------ 5|-------- 3-- 2------------------|
http://classicalguitartablature.blogspot.com/
E|-------- 3---- 5----------------|--------------------------------|
B| 4------ 1---- 3-------- 4------| 3------ 4------ 6------ 8------|
G| 5------ 2---- 2-------- 5------| 3------ 3------ 3------ 7------|
D| 4-------- 1-------- 4------ 4--|---- 3------ 5------ 5------ 6--|
A|---------------------- 6--------| 5------ 4------ 3--------------|
E| 5-- 4-- 3------ 2--------------|------------------------ 7------|
http://classicalguitartablature.blogspot.com/
E| 5------ 6------ 8------ 5---- 6|---------- 6-- 6----------------|
B| 8------ 6------ 6------ 3---- 3|---- 3 3-- 3---- 8--------------|
G| 7------ 5------ 5------ 3---- 3|---- 3 2-------- 7-- 7---- 7----|
D|---- 5------ 5------ 4------ 2--|------ 2------------------------|
A|--------------------------------|-------------- 8-------- 7---- 5|
E| 6------ 5------ 4------ 2---- 3|------ 2------------------------|
http://classicalguitartablature.blogspot.com/
E|------------ 6-- 6--------------|------------ 5------------------|
B|-- 3-------- 8-- 3-- 3-- 4-- 3--| 1-- 1------ 5--10--------------|
G|-- 3---- 7------ 3-- 3-- 3-- 3--| 2------ 5------ 7---------- 7--|
D|-- 3---- 8---------- 4 3------ 0|-------- 5------10--10------10--|
A|--------------------------------|--------------------------------|
E|-------- 6------ 4---- 3------ 2|------ 0--------10------ 8---- 5|
http://classicalguitartablature.blogspot.com/
E|---------- 5---- 5--------------|---------------- 3--------------|
B|-------- 1------ 3------ 3------|------------ 8-- 3------ 1-- 3--|
G|-- 5---- 2------ 5-- 5-- 5-- 5--| 3---------- 7-- 3------ 1-- 1--|
D|---- 4-- 1-------------- 7------| 3------ 8-- 8---------- 1-- 0--|
A|---------------------- 6--------| 5-- 3------------------------ 6|
E|-------- 3------ 2--------------|-------- 6-- 5-- 3-- 2-- 1-- 0--|
http://classicalguitartablature.blogspot.com/
E|---------- 3---- 3--------------|------------ 2------------------|
B|---------- 3---- 4---- 1--------|------------ 1-- 7--------------|
G|---- 3-- 3 3---- 3-- 3-- 3-- 3--| 2-- 2-- 2-- 2-- 5------ 2------|
D|---- 5-- 3---------- 5-- 1---- 4|-------- 1------ 7------ 4------|
A|-------- 5------ 3------ 1------|-------------- 6---- 5-- 3-- 2--|
E|------------------------------ 5|-------- 3-- 2------------------|
http://classicalguitartablature.blogspot.com/
E|-------- 3---- 5-------------- 7|--------------------------------|
B| 4------ 1---- 3-------- 4---- 6|---------------------------- 0--|
G| 5------ 2---- 2-------- 5------|---- 7---- 5---- 0---------- 0--|
D| 4-------- 1-------- 4------ 4--|---------- 5-------- 2------ 0--|
A|---------------------- 6------ 5|-------- 6----------------------|
E| 5-- 4-- 3------ 2--------------|---------------- 0------ 1------|
http://classicalguitartablature.blogspot.com/
E|------ 8--------10--------------|11--------------------11--------|
B| 3------ 6------ 8---- 8--------| 8-- 8------------ 8-- 8---- 8 8|
G| 4------ 5------ 7---- 7------ 8|---- 8------ 5---- 5-- 8---- 8--|
D|---- 3------ 7------ 6-- 6-- 6--|---- 8------ 5------ 7------ 8--|
A|--------------------------------|----------------------10--------|
E| 3------ 5------ 6---- 7------ 8|-------- 6------ 5--------------|
http://classicalguitartablature.blogspot.com/
E|-------------------- 8--11 8--10|----------------------10--------|
B|----10--10---------- 8-- 8-- 8--| 6------------------ 6 9-- 6----|
G| 8-- 8--10------10--10 8---- 8 7|---- 7---- 5------ 3--10-- 7----|
D|10--10--10--10-- 8--------------|---------- 3------ 3------ 6-- 5|
A| 8------------------------------|---------------------- 8-- 7-- 6|
E|--------11------10---- 8------ 6|-------- 5---- 3----------------|
http://classicalguitartablature.blogspot.com/
E|-- 3---- 3---------- 6--10-- 6--| 8------------------ 5-- 8-- 5--|
B| 6------ 6---------- 4-- 8-- 8--| 8------------------ 3-- 5-- 8--|
G| 3------ 3------ 3-- 3-- 8-- 8--| 8-- 8-- 2------ 2-- 2-- 5-- 5 3|
D|------ 3---- 3-- 5--------------|------------ 1-- 4---------- 7--|
A|-------- 5------ 3--------------|---------------------------- 6--|
E|------------------------ 6------| 5------ 3------ 2------ 0------|
http://classicalguitartablature.blogspot.com/
E| 6-------- 8--10------ 6----10--|11---------------------- 3-- 6--|
B| 3-------- 6-- 8-- 8-- 6----11--| 8------------------ 6-- 4------|
G|------ 7-- 5--10-- 7-- 4----10--| 8------ 5---------- 5-- 3-- 3--|
D|------ 5---------- 9-- 5---- 9--|---- 8------ 5------ 3----------|
A| 5-- 3----------10 8---- 5------|--------------------------------|
E|------ 6---- 5-------------- 9--| 8------ 6------ 5------ 3------|
http://classicalguitartablature.blogspot.com/
E|------------------------ 8------|--------------------------------|
B|11------10----------11-- 8------| 3------------------ 3------ 6--|
G| 8------10----------10-- 8-- 8--| 3------ 5------ 3-- 2-- 8-- 7--|
D|----10------10------ 8------ 7--| 3-- 3-- 3------ 3-- 1-- 6-- 6--|
A| 8------------------------------|------------------------ 8-- 7--|
E|--------11------10------ 8-- 7--| 6------ 5-- 4-- 3-- 2----------|
http://classicalguitartablature.blogspot.com/
E| 5------ 3----------------------|--------------------------------|
B| 8------ 6---------- 6-- 4-- 3--| 2---------------- 5-- 8-- 5-- 7|
G| 7------ 3---------- 3-- 5------| 2---------- 2---- 2-- 5---- 6 5|
D|---- 5------ 3------ 5 5--------| 5-- 5------ 2------ 4 5---- 5--|
A| 6------ 5------ 3--------------|------------------------ 7-- 6 5|
E|---------------------- 6--------| 5------ 3---- 2----------------|
http://classicalguitartablature.blogspot.com/
E|--------------------------------| 6---------- 6 6----------------|
B|--------------------------------| 3-- 3-- 3-- 3-- 8--------------|
G|-------- 7------ 7------ 5-- 5--| 3-- 3-- 2------ 7-- 7---- 7----|
D|---- 7------ 7-- 5-- 5-- 5-- 4--|-------- 2----------------------|
A|--------------------------------|-------------- 8-------- 7---- 5|
E|-------- 8------ 6------ 5-- 4--| 3------ 2----------------------|
http://classicalguitartablature.blogspot.com/
E|------------ 6-- 6--------------|------------ 5------------------|
B|-- 3-------- 8-- 3-- 3-- 4-- 3--| 1-- 1------ 5--10--------------|
G|-- 3---- 7------ 3-- 3-- 3-- 3--| 2------ 5------ 7---------- 7--|
D|-- 3---- 8---------- 4 3------ 0|-------- 5------10--10------10--|
A|--------------------------------|--------------------------------|
E|-------- 6------ 4---- 3------ 2|------ 0--------10------ 8---- 5|
http://classicalguitartablature.blogspot.com/
E|---------- 5---- 5--------------|---------------- 3--------------|
B|-------- 1------ 3------ 3------|------------ 8-- 3------ 1-- 3--|
G|-- 5---- 2------ 5-- 5-- 5-- 5--| 3---------- 7-- 3------ 1-- 1--|
D|---- 4-- 1-------------- 7------| 3------ 8-- 8---------- 1-- 0--|
A|---------------------- 6--------| 5-- 3------------------------ 6|
E|-------- 3------ 2--------------|-------- 6-- 5-- 3-- 2-- 1-- 0--|
http://classicalguitartablature.blogspot.com/
E|---------- 3---- 3--------------|------------ 2------------------|
B|---------- 3---- 4---- 1--------|------------ 1-- 7--------------|
G|---- 3-- 3 3---- 3-- 3-- 3-- 3--| 2-- 2-- 2-- 2-- 5------ 2------|
D|---- 5-- 3---------- 5-- 1---- 4|-------- 1------ 7------ 4------|
A|-------- 5------ 3------ 1------|-------------- 6---- 5-- 3-- 2--|
E|------------------------------ 5|-------- 3-- 2------------------|
http://classicalguitartablature.blogspot.com/
E|-------- 3---- 5----------------| 3---------------------- 1------|
B| 4------ 1---- 3------ 7--------| 3-------------- 3-- 4-- 3-- 7--|
G| 5------ 2---- 2------ 5--------| 3-- 2-- 3-- 5-- 3-- 3-- 3-- 5--|
D| 4-------- 1-------- 4---- 7----|---- 4-- 0-- 4-- 3-- 1-- 3-- 7--|
A|---------------------- 6--------| 5-- 3-- 1------------------ 6--|
E| 5-- 4-- 3------ 2--------------|------------ 5-- 3-- 2-- 1------|
http://classicalguitartablature.blogspot.com/
E|-- 3----------------------------|--------------------------------|
B|-- 5----------------------------|--------------------------------|
G| 3------------------------------|--------------------------------|
D|--------------------------------|--------------------------------|
A| 5------------------------------|--------------------------------|
E|--------------------------------|--------------------------------|
http://classicalguitartablature.blogspot.com/

0 ความคิดเห็น:

แสดงความคิดเห็น