To celebrate the anniversary, I am giving you (finally...) : iPhone LickByNeck !!!!!!

L.O.V.E

Crooner's favorite fingerstyle chord melody guitar arrangement played in the key of A
http://classicalguitartablature.blogspot.com/

http://classicalguitartablature.blogspot.com/
Like Someone In Love played in the key of A.
http://classicalguitartablature.blogspot.com/
E| 5------------------------------|--------------------------------|
B| 5------------------ 9------ 9--|-------- 7------ 6-- 7--------10|
G| 6------------------ 9------ 6--|-------- 6------ 6-- 6-------- 8|
D|-------------------- 7------ 6--|-------- 6------ 6-- 6-------- 7|
A|---------------------------- 7--|--------------------------------|
E| 5------ 7---- 9----------------|------------------------------ 7|
http://classicalguitartablature.blogspot.com/
E|--------------------------------|--------------------------------|
B|----10-------------- 9------ 9--|---- 9-------------- 9------ 9--|
G|---- 8--------------11------ 8--|---- 8-------------- 8------ 7--|
D|---- 7-------------- 9------ 7--|---- 7-------------- 7------ 7--|
A|---------------------------- 9--|--------------------------------|
E|-------- 9----11----------------|-------- 9------ 7---------- 7--|
http://classicalguitartablature.blogspot.com/
E|--------------------------------|---------------------------- 4--|
B|-------------------- 7-------- 7|------ 5------ 4---- 5------ 5--|
G|---- 7-------------- 7-------- 7|------ 7------ 4---- 4------ 6--|
D|---- 7-------------- 7-------- 7|------ 6------ 2---- 2----------|
A|---------------------- 9------ 7|--------------------------------|
E|-------- 9----10----------------|------ 6------ 4------------ 5--|
http://classicalguitartablature.blogspot.com/
E|---- 4--------------------------|------------------------------ 9|
B|---- 5-------------- 7------ 7--|---- 7-------------- 7-------- 8|
G|---- 6-------------- 9------ 6--|---- 6-------------- 6-------- 9|
D|-------------------- 7------ 6--|---- 6-------------- 7-------- 7|
A|---------------------------- 7--|--------------------------------|
E|-------- 7------ 9--------------|------ 7-------- 5--------------|
http://classicalguitartablature.blogspot.com/
E|-------- 9---------- 7------ 7--|------ 5------------------------|
B|-------- 8---------- 8------ 5--|------ 5------ 9----10----------|
G|-------------------- 7------ 6--|------ 6------ 9---- 9----------|
D|-------------- 9----------------|-------------- 7---- 7----------|
A|---------------- 7--------------|--------------------------------|
E|---------------------------- 5--|-------------- 9------------10--|
http://classicalguitartablature.blogspot.com/
E|---- 9---------- 9--------------|---------------------------- 9--|
B|----10----------10----12----12--|----10------ 9------10------ 7--|
G|----11----------11----11---- 9--|---- 9------ 9------ 9------ 8--|
D|---------------------------- 9--|---- 9------ 9------ 9----------|
A|--------------------------------|------------ 9------------------|
E|--------------10------------10--|---------------------------- 7--|
http://classicalguitartablature.blogspot.com/
E|---- 9---------------------- 7--|------------------------------ 7|
B|---- 7--------------12------ 7--|--------10------ 9--10-------- 7|
G|---- 8--------------11------ 8--|-------- 9------ 8-- 8-------- 7|
D|-------------------- 9----------|-------- 7------ 7-- 7-------- 7|
A|---------------------------- 9--|------------------------------ 7|
E|------ 7 9----11----------------|---------------- 7--------------|
http://classicalguitartablature.blogspot.com/
E|---- 9-------------- 7----------|------------------------------ 5|
B|------------10------ 7------ 9--|----10------ 7------ 9-------- 5|
G|------------ 7------ 7------ 7--|---- 7------ 7---------------- 6|
D|------------ 7-------------- 9--|---- 9------ 6------------------|
A|---------------------------- 7--|--------------------------------|
E|------------ 7------------------|------------ 6------------------|
http://classicalguitartablature.blogspot.com/
E|--------------------------------|--------------------------------|
B|-------------------- 9------ 9--|------ 7------ 6---- 7------10--|
G|-------------------- 9------ 6--|------ 6------ 6---- 6------ 8--|
D|-------------------- 7------ 6--|---- 6-------- 6---- 6------ 7--|
A|---------------------------- 7--|--------------------------------|
E| 5---- 7------ 9----------------|---------------------------- 7--|
http://classicalguitartablature.blogspot.com/
E|--------------------------------|--------------------------------|
B|-------------------- 9------ 9--|---- 9-------------- 9----------|
G|--------------------11------ 8--|---- 8-------------- 8----------|
D|---- 7-------------- 9------ 7--|---- 7-------------- 7----------|
A|---------------------------- 9--|--------------------------------|
E|------ 9------11----------------|-------- 9------ 7--------------|
http://classicalguitartablature.blogspot.com/
E|---- 7--------------------------|---------------------------- 4--|
B| 9------------------ 7-------- 7|------ 5------ 4---- 5------ 5--|
G| 7------------------ 7-------- 7|------ 7------ 4---- 4------ 6--|
D| 7------------------ 7-------- 7|------ 6-------- 2-- 2----------|
A|---------------------- 9------ 7|--------------------------------|
E| 7------ 9------10--------------|------ 6-------- 4---------- 5--|
http://classicalguitartablature.blogspot.com/
E|---- 4--------------------------|------------------------------ 9|
B|---- 5-------------- 7------ 7--|---- 7-------------- 7-------- 8|
G|-------------------- 9------ 6--|---- 6-------- 6---- 6-------- 7|
D|-------------------- 7------ 6--|---- 6-------------- 7----------|
A|---------------------------- 7--|------------------------------ 7|
E|-------- 7---- 8----------------|------ 7------ 5----------------|
http://classicalguitartablature.blogspot.com/
E|---- 9-------------- 7------ 7--|---- 5--------------------------|
B|---- 8-------------- 8------ 7--|---- 7------ 9------10----------|
G|---- 7-------------- 7------ 6--|---- 6------ 9------ 9----------|
D|------ 9------------------------|------------ 7------ 7----------|
A|---------------- 7--------------|--------------------------------|
E|---------------------------- 5--|------------ 9----------------10|
http://classicalguitartablature.blogspot.com/
E|---- 9-------- 9----------------|---------------------------- 5--|
B|----10--------10----12------12--|----10------ 9------10------ 5--|
G|----11-------- 9---- 9------11--|----11------ 8------ 8------ 6--|
D|-------------- 9---- 9------11--|----11------ 7------ 7----------|
A|-------------- 9----------------|------------ 9-------------- 7--|
E|----------------------------11--|--------------------------------|
http://classicalguitartablature.blogspot.com/
E|---- 5--------------------------|-------------------- 7-------- 5|
B|---- 5-------- 7---- 7----------| 9------------ 9-------------- 5|
G|---- 6-------- 9---- 9----------|---- 9------------------------ 6|
D|---------------- 7-- 7----------|--------------------------------|
A|-------- 8---- 9----------------|-------- 8---- 7----------------|
E|------------------------ 8------| 7------------------------------|
http://classicalguitartablature.blogspot.com/
E|------------ 4---------- 4------|---- 2---------- 5--------------|
B|------------ 7---------- 5------|---- 2---------- 3---------- 9--|
G|------------ 6---------- 4------|---- 3---------- 2---------- 7--|
D|--------------------------------|---------------------------- 9--|
A|------------ 5---------- 4------|---------------- 2---------- 7--|
E| 5------------------------------|---- 2--------------------------|
http://classicalguitartablature.blogspot.com/
E|------ 4------------------------|--------------------------------|
B|------ 5------------------------|--------------------------------|
G|-------- 6----------------------|--------------------------------|
D|--------------------------------|--------------------------------|
A|--------------------------------|--------------------------------|
E|-------- 5----------------------|--------------------------------|
http://classicalguitartablature.blogspot.com/

0 ความคิดเห็น:

แสดงความคิดเห็น