To celebrate the anniversary, I am giving you (finally...) : iPhone LickByNeck !!!!!!

Meditation

Bossa Nova classic fingerstyle chord melody guitar arrangement played in the key of C

You need to install the Flash plugin - http://www.webestools.com/

http://classicalguitartablature.blogspot.com/
Meditation played in the key of C.
http://classicalguitartablature.blogspot.com/
E| 5------ 5---------- 5------ 5--|---- 5------ 5---------- 3------|
B| 5------ 5---------- 5------ 5--|---- 5------ 5------ 5-- 5------|
G| 4------ 4---------- 4------ 4--|---- 4------ 4------ 4-- 4------|
D|--------------------------------|--------------------------------|
A| 3------------------------------| 3------------------------------|
E|---------------- 3--------------|---------------- 3--------------|
http://classicalguitartablature.blogspot.com/
E| 7------------------------------|------------------------------ 5|
B| 7----11--10------------1010----|---------------------- 7-- 8-- 5|
G| 8---------------------- 8 8----|------ 8-------------- 8-- 8-- 4|
D|------------------------ 7 7----|------ 7---------- 7------------|
A|-------------- 9----------------|------------------------------ 3|
E| 7------------------------------| 7------------ 7----------------|
http://classicalguitartablature.blogspot.com/
E|------ 5------------ 5---- 5-- 5|------------ 7------------------|
B|------ 5---------- 6------ 6-- 8|---- 8------ 8------ 8----10----|
G|------ 4---------- 5-------- 5 7|---- 7------ 7------ 7---- 7----|
D|------------------ 7------------|-------------------------- 9----|
A|-------------- 5-------------- 7|---------------- 8------------ 7|
E|--------------------------------|--------------------------------|
http://classicalguitartablature.blogspot.com/
E|-------- 7----------------------|--------------------------------|
B|--------10--10----------10------|-------- 5------------ 5---- 5--|
G|-------- 7-- 7---------- 7------|-------- 6---------- 6------ 6--|
D|------------ 9---------- 9------|-------- 5---------- 5------ 5--|
A|---------------- 7--------------|--------------------------------|
E|--------------------------------| 5-------------- 5--------------|
http://classicalguitartablature.blogspot.com/
E|--------------------------------|------------------------------ 3|
B| 6------ 6-------- 6-------- 6--|-- 6------ 6---------- 5------ 1|
G| 5------ 5---------- 5------ 5--|-- 5------ 5------------------ 1|
D| 7------ 7-------- 7-------- 7--|-- 7------ 7------ 7------------|
A| 5---------------------------- 5|--------------------------------|
E|---------------- 5--------------|-------------- 5-------------- 1|
http://classicalguitartablature.blogspot.com/
E|------ 2-- 1--------------------|-------- 1----------------------|
B|------ 1---------------- 1------|---------------------------- 3--|
G|------ 1-- 1------------ 1------|-------- 1---------- 5----------|
D|--------------------------------|--------------------------------|
A|-------------- 3----------------| 1-------------- 1--------------|
E|--------------------------------|--------------------------------|
http://classicalguitartablature.blogspot.com/
E|--------------------------------|--------------------------------|
B| 5---- 5------ 5---- 4---- 5----| 6---- 6------------ 6------ 6--|
G| 4---- 4------------------------|-------- 6---------- 6------ 6--|
D| 5------------ 5----------------| 5------ 5---------- 5------ 5--|
A| 3------------------------------|---------------- 6--------------|
E|-------------- 3----------------| 5------------------------------|
http://classicalguitartablature.blogspot.com/
E|--------------------------------| 5------ 5---------- 5---- 5-- 5|
B| 8------ 8---- 8------ 7-- 8----| 5------ 5---------- 5---- 5-- 5|
G| 5------ 5---- 5----------------| 4------ 4---------- 4---- 4----|
D| 7------ 7------ 7--------------|--------------------------------|
A| 5------------------------------|---------------- 4--------------|
E|---------------- 5--------------| 3------------------------------|
http://classicalguitartablature.blogspot.com/
E|------ 5---------- 5------ 5----|---- 5---- 5-------- 5-- 3---- 7|
B|------ 5---------- 5-------- 5--|---- 5---- 5------ 5---------- 7|
G| 4---- 4---------- 4-------- 4--|---- 4---- 4------ 4---------- 8|
D|--------------------------------|--------------------------------|
A| 3------------------------------| 3------------------------------|
E|-------------- 3----------------|-------------- 3-------------- 7|
http://classicalguitartablature.blogspot.com/
E|--------------------------------|--------------------------------|
B|------11--10----------10--------|---------------------- 7-- 8----|
G|---------------------- 8--------|-------- 8-------- 8------------|
D|---------------------- 7--------|-------- 7----------------------|
A|---------------- 9--------------|---------------- 9--------------|
E|--------------------------------| 7------------------------------|
http://classicalguitartablature.blogspot.com/
E| 5---- 5---------- 5------ 5-- 5|-------------- 7----------------|
B| 5---- 5------------ 6---- 6-- 8|------ 8------ 8-- 8------10----|
G| 4---- 4------------ 5---- 5-- 7|------ 7------ 7-- 7-------- 7--|
D|--------------------------------|------------------ 7------ 9----|
A| 3------------ 5----------------| 7------------ 8-------------- 7|
E|--------------------------------|--------------------------------|
http://classicalguitartablature.blogspot.com/
E|---- 7--------------------------|--------------------------------|
B|----10------10----------10------|---- 5------ 5------ 5----------|
G|---- 7------ 7---------- 7------|---- 6------ 6------ 6----------|
D|------------ 9---------- 9------|---- 5------ 5------ 5----------|
A|---------------- 7--------------|--------------------------------|
E|--------------------------------| 5-------------- 5--------------|
http://classicalguitartablature.blogspot.com/
E|--------------------------------|------------------------------ 3|
B| 6---- 6------------ 6----------|---- 6---- 6------ 6---- 5------|
G| 5---- 5------------ 5------ 5--|---- 5---- 5------ 5------------|
D| 7---- 7------------ 7------ 7--|---- 7---- 7------ 7------------|
A| 5------------------------------| 5------------------------------|
E|---------------- 5--------------|---------------- 5--------------|
http://classicalguitartablature.blogspot.com/
E|------ 2---- 1---------- 1------|-------- 1----------------------|
B| 1---------------------- 1------|-------- 1------------------ 3--|
G| 1---------------------- 1------|-------- 1-------------- 5------|
D|--------------------------------|--------------------------------|
A|---------------- 3--------------| 1-------------- 1--------------|
E| 1------------------------------|--------------------------------|
http://classicalguitartablature.blogspot.com/
E|--------------------------------|--------------------------------|
B| 5------ 5---- 5---- 4---- 5----| 6------ 6-------- 6------ 6-- 8|
G| 4------ 4------ 4--------------| 6------ 6---------- 6---- 6-- 5|
D| 5------ 5---- 5----------------| 5------ 5---------- 5---- 5-- 7|
A| 3------------------------------|-------------- 6-------------- 5|
E|---------------- 3--------------| 5------------------------------|
http://classicalguitartablature.blogspot.com/
E|--------------------------------| 5---- 5------------ 5---- 5-- 8|
B|------ 8------ 8---- 7---- 8----| 5---- 5------------ 5---- 5-- 8|
G|------ 5------ 5----------------| 4---- 4------------ 3---- 3-- 7|
D|------ 7------ 7----------------|--------------------------------|
A|--------------------------------|------------------------------ 8|
E|-------------- 5----------------| 3-------------- 2--------------|
http://classicalguitartablature.blogspot.com/
E|------ 8---------- 8------ 8----|---- 8---- 8------ 8-- 7------10|
B|------ 8---------- 8------ 8----|---- 8---- 8------------------ 9|
G|------ 7---------- 7------ 7----|---- 7---- 7------------------ 8|
D|--------------------------------|--------------------------------|
A|------------------------------ 8|------------------------------ 8|
E|-------------- 8----------------|---------------- 8--------------|
http://classicalguitartablature.blogspot.com/
E|------ 9-- 8---------- 8--------|-------- 8-------- 8---- 7----10|
B|------ 9-- 9---------- 9--------|-------- 8-------------------- 8|
G|------ 8-- 8---------- 8--------|-------- 7-------- 7---------- 7|
D|--------------------------------|------------------------------ 9|
A|--------------------------------|------------------------------ 7|
E|-------------- 8-------------- 6|-------------- 6----------------|
http://classicalguitartablature.blogspot.com/
E|---- 9---- 8------ 7------10----|-- 9------ 8------ 7------ 5----|
B|---- 8---- 8------ 8------ 8----|-- 8------ 6-------------- 8----|
G|---- 7---- 7------ 7------ 9----|-- 9------ 6------ 6------ 5----|
D|------ 9-- 7------------------ 7|--------------------------------|
A|--------------------------------|-------------- 6-------------- 5|
E|-------------- 7----------------|--------------------------------|
http://classicalguitartablature.blogspot.com/
E|--------------------------------|------------------------------ 5|
B|-- 8------ 8------ 8------ 8----|-- 5------ 5-------- 4---- 4-- 5|
G|-- 5------ 5-------- 5---- 5----| 4---- 4-- 4-------- 4---- 4-- 4|
D|-- 7------ 7-------- 7----------|-- 3------ 3-------- 3---- 3----|
A|--------------------------------|------------------------------ 3|
E|-------------- 5----------------| 3-------------- 3--------------|
http://classicalguitartablature.blogspot.com/
E|------ 5---------- 5------ 5----|---- 5------ 5---- 5---- 3---- 7|
B|------ 5---------- 5------ 5----|---- 5---- 5------ 5---------- 7|
G|------ 4---------- 4------ 4----|---- 4------ 4---- 4---------- 8|
D|--------------------------------|--------------------------------|
A|--------------------------------| 3------------------------------|
E|-------------- 3----------------|---------------- 3------------ 7|
http://classicalguitartablature.blogspot.com/
E|--------------------------------|------------------------------ 5|
B|------11----10---------------- 7|---------------------- 7-- 8-- 5|
G|---------------------- 8--------|---- 8------ 8---- 8---------- 4|
D|---------------------- 7--------|---- 7------ 7------------------|
A|---------------- 9--------------|--------------------------------|
E|------------------------------ 7|---------------- 7--------------|

E|-------- 5---------- 5---- 5-- 5|-------------- 7----------------|
B|------ 5------------ 6---- 6-- 8|------ 8------ 8---- 8----10----|
G|------ 4------------ 5---- 5-- 7|-------- 7---- 7---- 7---- 7----|
D|--------------------------------|-------------------- 7---- 9----|
A| 3-------------- 5--------------| 7------------ 8-------------- 7|
E|--------------------------------|--------------------------------|
http://classicalguitartablature.blogspot.com/
E|-- 7----------------------------|--------------------------------|
B|--10--------10------------------|---- 5---- 5-------- 5-------- 6|
G|-- 7-------- 7-------- 7--------|---- 6---- 6-------- 6-------- 5|
D|------------ 9-------- 9--------|---- 5---- 5-------- 5----------|
A|---------------- 7--------------|--------------------------------|
E|--------------------------------| 5-------------- 5--------------|
http://classicalguitartablature.blogspot.com/
E|--------------------------------|------------------------------ 3|
B|-------- 6-------- 6------ 6----|---- 6---- 6-------- 6 5------ 1|
G|-------- 5---------- 5---- 5----|---- 5---- 5------ 5---------- 1|
D| 7------ 7---------- 7---- 7----|---- 7---- 7------ 7-- 7--------|
A| 5---------------------------- 5|--------------------------------|
E|---------------- 5--------------|-------------- 5-------------- 1|
http://classicalguitartablature.blogspot.com/
E|------ 2-- 1---------- 1--------|-------- 1----------------------|
B|------ 1-- 1---------- 1--------|-------- 1---------------- 3-- 5|
G|------ 1-- 1---------- 1--------|-------- 1------------ 5------ 4|
D|--------------------------------|--------------------------------|
A|-------------- 3-------------- 1|---------------- 1--------------|
E|--------------------------------|--------------------------------|
http://classicalguitartablature.blogspot.com/
E|--------------------------------|--------------------------------|
B|------ 5-- 6---- 6-- 6---- 3----|---- 3---- 5------ 5------ 1----|
G|------ 4---- 6------ 6---- 5----|---- 5---- 4-------- 4---- 3----|
D| 5---- 5---- 5------ 5----------|---- 3---- 3-------- 3---- 4----|
A| 3---------------------------- 5|--------------------------------|
E|---------------- 5--------------|---------------- 3------------ 4|
http://classicalguitartablature.blogspot.com/
E|--------------------------------|--------------------------------|
B| 1---- 1------------ 1---- 1----|-- 1------ 1------ 1------------|
G|------ 3------------ 3---- 3-- 2|---------- 2------ 2------------|
D|------ 4------------ 4---- 4----|-- 3------ 3------ 3------------|
A|--------------------------------|------------------------------ 3|
E|---------------- 4--------------| 3------------------------------|
http://classicalguitartablature.blogspot.com/
E|--------------------------------|--------------------------------|
B|-- 1----------------------------|--------------------------------|
G| 2------------------------------|--------------------------------|
D| 2------------------------------|--------------------------------|
A|--------------------------------|--------------------------------|
E|--------------------------------|--------------------------------|
http://classicalguitartablature.blogspot.com/

0 ความคิดเห็น:

แสดงความคิดเห็น