To celebrate the anniversary, I am giving you (finally...) : iPhone LickByNeck !!!!!!

Memory

Andrew Lloyd Webber's musical "Cats" hit fingerstyle solo guitar arrangement played in the key of C.


http://classicalguitartablature.blogspot.com/
Memory played in the key of C.
Classical Guitar Tablature http://classicalguitartablature.blogspot.com/
E| 8------ 6-- 5------------------|------------------------------ 8|
B| 8-- 8-- 3-- 3-- 8-- 5-- 6------| 5------ 3-------------------- 8|
G| 7---- 6-- 3---- 5-- 5-- 7-- 7--| 5-- 5-- 5-- 4-- 5---------- 7--|
D|-- 7------------ 5 5---- 6 6----|-- 7------ 3 3---- 5 6---- 5----|
A|-------- 5------ 7------ 8------| 9------------------------------|
E| 8------------------------------|-------- 3-- 4-- 5-- 6 7------ 8|
Classical Guitar Tablature http://classicalguitartablature.blogspot.com/
E|-------- 6-- 5------------------|------------------------------ 8|
B|---- 8-- 3-- 3-- 8-- 5-- 6------| 5------ 3----------------------|
G|---- 7---- 3---- 5-- 5-- 7-- 7--| 5-- 5-- 5-- 4-- 5---------- 7--|
D|-- 7------------ 5 5---- 6 6----|-- 7------ 3 3---- 5 6---- 5----|
A|-------- 5------ 7------ 8------| 9------------------------------|
E|--------------------------------|-------- 3-- 4-- 5-- 6 7------ 8|
Classical Guitar Tablature http://classicalguitartablature.blogspot.com/
E|-------- 8-------- 7 8--10------|------------------ 7 8--10 8----|
B| 8-- 8-- 8-- 8---- 8 8--131310--|13------13--------1010--10-- 8--|
G|-- 7------ 7------ 9 9--101010--|12--12--10--10---- 9-- 9---- 7--|
D|--------------------------1212--|1010------12---------------- 710|
A|-------- 7------10----11------12|--------11------10---- 9---- 7 8|
E|--------------------------------|--------------------------------|
Classical Guitar Tablature http://classicalguitartablature.blogspot.com/
E|--------------------------------|---------------------------- 3--|
B|10------10---------- 8--10 8----| 5---------------------- 5------|
G| 9-- 9-- 9-- 9----10----10--10--| 7-- 7------ 9------ 0-- 4------|
D|--10------10------10--10--------| 5 5------ 9------ 0------ 5----|
A|-------- 7----------------------|--------------------------------|
E|----------------10---- 8------ 7|--------10------ 0------ 3---- 5|
Classical Guitar Tablature http://classicalguitartablature.blogspot.com/
E|---------------------------- 7 8|-- 7------------------ 0--------|
B| 8-------------- 6-- 8--10-- 9 5|-- 610 8-------------- 1---- 1--|
G| 7-- 7-- 7-- 9-- 5-- 9--10-- 7 5|-- 7 9 9---- 9------ 5 2---- 2 5|
D| 7 7---- 7 7------ 7 8----10----|---- 7 8-- 8------ 5------ 2 2--|
A|---------------- 5--------------|-------------- 7----------------|
E|-------- 8---------- 9-- 8-- 7 5|-- 7 8--10------------ 1---- 2 3|
Classical Guitar Tablature http://classicalguitartablature.blogspot.com/
E| 3------ 3----------------------|---------------------- 3-- 5 7 8|
B| 6-- 6-- 6-- 6-------------- 1--|------------------ 5 6 4-- 5 9--|
G|-- 5------ 5-------- 5-- 2-- 0--| 5-- 5------ 5---- 5 5 4-- 4 7--|
D|------------------ 3------ 3 3--|-- 5------ 5------ 4 4------ 9--|
A|------------------------ 1-- 2--|-------------------------- 4----|
E|-------- 4------ 5--------------| 8------ 6---- 4------ 3---- 7 8|
Classical Guitar Tablature http://classicalguitartablature.blogspot.com/
E|-------- 8-------- 7 8--10------|------------------ 7 8--10 8----|
B| 8-- 8-- 8-- 8---- 8 8--131310--|13------13--------1010--10-- 8--|
G|-- 7------ 7------ 9 9--101010--|12--12--10--10---- 9-- 9---- 7--|
D|--------------------------1212--|1010------12---------------- 710|
A|-------- 7------10----11------12|--------11------10---- 9---- 7 8|
E|--------------------------------|--------------------------------|
Classical Guitar Tablature http://classicalguitartablature.blogspot.com/
E|--------------------------------|---------------------------- 3--|
B|10------10---------- 8--10 8----| 5---------------------- 5------|
G| 9-- 9-- 9-- 9----10----10--10--| 7-- 7------ 9------ 0-- 4------|
D|--10------10------10--10--------| 5 5------ 9------ 0------ 5----|
A|-------- 7----------------------|--------------------------------|
E|----------------10---- 8------ 7|--------10------ 0------ 3---- 5|
Classical Guitar Tablature http://classicalguitartablature.blogspot.com/
E|---------------------------- 7 8|-- 7------------------ 0--------|
B| 8-------------- 6-- 8--10-- 9 5|-- 610 8-------------- 1---- 1--|
G| 7-- 7-- 7-- 9-- 5-- 9--10-- 7 5|-- 7 9 9---- 9------ 5 2---- 2 5|
D| 7 7---- 7 7------ 7 8----10----|---- 7 8-- 8------ 5------ 2 2--|
A|---------------- 5--------------|-------------- 7----------------|
E|-------- 8---------- 9-- 8-- 7 5|-- 7 8--10------------ 1---- 2 3|
Classical Guitar Tablature http://classicalguitartablature.blogspot.com/
E| 3------ 3----------------------|--------------------------------|
B| 6-- 6-- 6-- 6-------------- 1--| 1------------------------------|
G|-- 5------ 5-------- 5-- 2-- 0--| 0-- 0------ 0------ 0-- 2-- 3--|
D|------------------ 3------ 3 3--|-- 2------ 0---- 2 2 0---- 2 3--|
A|------------------------ 1-- 2--| 3------ 2------ 0--------------|
E|-------- 4------ 5--------------|-------------------- 3-- 2-- 1--|
Classical Guitar Tablature http://classicalguitartablature.blogspot.com/
E|--------------------------------|--------------------------------|
B| 0------ 5-------------------- 0|------ 5------ 0----------------|
G| 0-- 0-- 4-- 4-- 4-- 4-- 2-- 2 0|---- 0 4---- 4 2---- 2-- 2------|
D|-- 0------ 2------ 3------ 2----|-- 0------ 5------ 3-- 3--------|
A|--------------------------------|------ 5------ 3----------------|
E| 0------ 3------ 5------ 1---- 0|---------------------- 5-- 3 1--|
Classical Guitar Tablature http://classicalguitartablature.blogspot.com/
E|--------------------------------|--------------------------------|
B| 0------ 5------ 5------ 3---- 1| 3------ 3----------------------|
G| 0-- 0-- 4-- 4-- 2-- 2-- 2------| 2------ 4-- 4-- 4 5 6-- 7------|
D|-- 0---- 5 5---- 2 2---- 4 4----| 2-------- 5---- 5 3 4-- 5------|
A|-------- 5------ 4------ 3---- 2|-- 3 4-- 5---------------- 5 6 7|
E| 0------------------------------|---------------- 3 5 6-- 7------|
Classical Guitar Tablature http://classicalguitartablature.blogspot.com/
E|-------------------- 7----------|-------------------- 5-- 3-- 5--|
B| 8------ 8------ 8-- 810---- 8 7|------ 7------ 7-------- 5-- 5--|
G| 7-- 7-- 5-- 5-- 7---- 9---- 9 7|---- 7 7---- 7 5------ 5-- 5----|
D| 5 5---- 7 7---- 9 9-- 8-- 8----|-- 7------ 7-- 5-- 5------------|
A|-------- 6----------------------|------------------------------ 9|
E|----------------10---- 9------ 8|------ 7------ 5------ 3--------|
Classical Guitar Tablature http://classicalguitartablature.blogspot.com/
E| 7------ 7---- 7-------- 9------|10------------------------ 5 7--|
B|10--10--10--10--10--10-- 9------|10--10--10---------- 7-- 8 5 3--|
G| 7 7------ 7------ 7-- 7---- 711|--11 9--12--12---- 9 7-- 7 6 4--|
D|-------------------------- 6----|---- 9--121211---- 7 7-- 8------|
A|-------- 8------ 7------------12|---- 9--------------------------|
E|---------------------- 6--------|------12----11--10 9 7-- 6 5-- 3|
Classical Guitar Tablature http://classicalguitartablature.blogspot.com/
E| 8------ 8-------- 7 8--10------|------------------ 7 8--10 8----|
B| 8-- 8-- 8-- 8---- 8 8--131310--|13------13--------1010--10-- 8--|
G|-- 7------ 7------ 9 9--101010--|12--12--10--10---- 9-- 9---- 7--|
D|--------------------------1212--|1010------12---------------- 710|
A|-------- 7------10----11------12|--------11------10---- 9---- 7 8|
E| 8------------------------------|--------------------------------|
Classical Guitar Tablature http://classicalguitartablature.blogspot.com/
E|--------------------------------|---------------------------- 3--|
B|10------10---------- 8--10 8----| 5---------------------- 5------|
G| 9-- 9-- 9-- 9----10----10--10--| 7-- 7------ 9------ 0-- 4------|
D|--10------10------10--10--------| 5 5------ 9------ 0------ 5----|
A|-------- 7----------------------|--------------------------------|
E|----------------10---- 8------ 7|--------10------ 0------ 3---- 5|
Classical Guitar Tablature http://classicalguitartablature.blogspot.com/
E|---------------------------- 7 8|-- 7------------------ 0--------|
B| 8-------------- 6-- 8--10-- 9 5|-- 610 8-------------- 1---- 1--|
G| 7-- 7-- 7-- 9-- 5-- 9--10-- 7 5|-- 7 9 9---- 9------ 5 2---- 2 5|
D| 7 7---- 7 7------ 7 8----10----|---- 7 8-- 8------ 5------ 2 2--|
A|---------------- 5--------------|-------------- 7----------------|
E|-------- 8---------- 9-- 8-- 7 5|-- 7 8--10------------ 1---- 2 3|
Classical Guitar Tablature http://classicalguitartablature.blogspot.com/
E| 3------ 3----------------------|---------------------- 3-- 5 7 8|
B| 6-- 6-- 6-- 6-------------- 1--|------------------ 5 6 4-- 5 9 8|
G|-- 5------ 5-------- 5-- 2-- 0--| 5-- 5------ 5---- 5 5 4-- 4 7--|
D|------------------ 3------ 3 3--|-- 5------ 5------ 4 4------ 9--|
A|------------------------ 1-- 2--|-------------------------- 4----|
E|-------- 4------ 5--------------| 8------ 6---- 4------ 3---- 7 8|
Classical Guitar Tablature http://classicalguitartablature.blogspot.com/
E|-------- 6-- 5------------------|------------------------------ 8|
B|---- 8-- 3-- 3-- 8-- 5-- 6------| 5------ 3-------------------- 8|
G|---- 7---- 3---- 5-- 5-- 7-- 7--| 5-- 5-- 5-- 4-- 5---------- 7--|
D|-- 7------------ 5 5---- 6 6----|-- 7------ 3 3---- 5 6---- 5----|
A|-------- 5------ 7------ 8------| 9------------------------------|
E|--------------------------------|-------- 3-- 4-- 5-- 6 7------ 8|
Classical Guitar Tablature http://classicalguitartablature.blogspot.com/
E|-------- 6-- 5------------------|--------------------------------|
B|---- 8-- 3-- 3-- 8-- 5-- 6------| 5------ 3----------------------|
G|---- 7---- 3---- 5-- 5-- 7-- 7--| 5-- 5-- 5-- 4-- 5-- 5-- 5---- 5|
D|-- 7------------ 5 5---- 6 6----|-- 7------ 3 3---- 3------ 3----|
A|-------- 5------ 7------ 8------| 9------------------------------|
E|--------------------------------|-------- 3-- 4-- 5------ 4------|
Classical Guitar Tablature http://classicalguitartablature.blogspot.com/
E|--------------------------------|--------------------------------|
B|---- 1--------------------------|--------------------------------|
G|---- 0--------------------------|--------------------------------|
D|---- 2--------------------------|--------------------------------|
A|--------------------------------|--------------------------------|
E|-- 3----------------------------|--------------------------------|

0 ความคิดเห็น:

แสดงความคิดเห็น