To celebrate the anniversary, I am giving you (finally...) : iPhone LickByNeck !!!!!!

Michelle

Beatles classic fingerstyle solo guitar arrangement played in the key of Dm.

Michelle played in the key of Dm.
Classical Guitar Tablature http://classicalguitartablature.blogspot.com/
E|--------------------------------|--------------------------------|
B|------ 6-------------- 6--------|------ 6-------------- 6--------|
G| 7------------ 6------ 3------ 5|-------------- 4------ 4------ 3|
D| 7-------------------- 5------ 3|---------------------- 3------ 3|
A|---------------------- 4------ 5|------------------------------ 5|
E| 5------------------------------|---------------------- 5--------|
Classical Guitar Tablature http://classicalguitartablature.blogspot.com/
E|------ 5------ 3----------------|------------------------------ 5|
B|------ 5------ 5------ 6------ 5|------------ 5 3------ 5------ 7|
G|------------------------------ 6|------ 6------ 0------ 2--------|
D|---- 3--------------------------|---- 5---------------- 2--------|
A|--------------------------------|---------------- 2---- 4--------|
E|------------------------------ 5|--------------------------------|
Classical Guitar Tablature http://classicalguitartablature.blogspot.com/
Classical Guitar Tablature http://classicalguitartablature.blogspot.com/
E|-------------- 5----------------|------ 6------------------------|
B|------------ 7-- 7--------------|------ 3------ 6------------ 6 5|
G|------ 5-------------------- 5--|-------------- 4------ 4------ 3|
D|---- 7-------------- 7------ 4--|---- 3---- 3-- 6-- 6------------|
A| 5------------------------------|-------------- 4----------------|
E|---------------- 5------ 4------| 3------------------------------|
Classical Guitar Tablature http://classicalguitartablature.blogspot.com/
E|------ 5------------------------|-------------- 4---- 4-- 1------|
B|------ 3------ 5----------------| 3-- 3-- 6---- 3---- 3-- 3---- 5|
G|-------------- 5------------ 5--| 4-- 4-- 4---- 4---- 4-- 1---- 2|
D|---- 5------ 5------ 5----------| 3-- 3-- 6------ 3--------------|
A| 3------------------------------|-------- 5-------------- 2------|
E|-------------- 6------ 5--------| 4------------------------------|
Classical Guitar Tablature http://classicalguitartablature.blogspot.com/
E|-------------------- 0------ 1--| 0------------------------------|
B|---- 5-------- 3------------ 1--|------------ 2-- 3---- 5--------|
G|---- 2------ 2 1------------ 1--|-------- 0------ 0---- 2--------|
D| 5-- 5------ 5 3---------- 1----|---- 2---------- 0------ 2------|
A| 4---- 3-------- 2---------- 1--| 0-------------- 2------ 4------|
E|--------------------------------|--------------------------------|
Classical Guitar Tablature http://classicalguitartablature.blogspot.com/
E| 5-------------- 5--------------|------ 6------------------------|
B| 7---------- 7-- 7--------------|------ 3------ 6------------ 6 5|
G|------ 5-------------------- 5--|-------------- 4------ 4--------|
D|---- 7-------------- 7------ 4--|---- 3---- 3-- 6---- 6----------|
A| 5------------------------------|-------------- 4----------------|
E|---------------- 5------ 4------| 3------------------------------|
Classical Guitar Tablature http://classicalguitartablature.blogspot.com/
E|------ 5------------------------|-------------- 4---- 4-- 1------|
B|------ 3------ 5----------------| 3-- 3-- 6---- 3---- 3-- 3------|
G| 3------------ 5------------ 5--| 4-- 4-- 4---- 4---- 4-- 1------|
D|---- 5------ 5------ 5----------| 3-- 3-- 6------ 3--------------|
A| 3------------------------------|-------- 5-------------- 2------|
E|-------------- 6------ 5--------| 4------------------------------|
Classical Guitar Tablature http://classicalguitartablature.blogspot.com/
E|-------------------- 0------ 1--| 0-------------------- 5------10|
B| 5-- 5-------- 3------------ 1--| 2---------- 2-- 3------ 2----10|
G| 2-- 2------ 2 1------------ 1--|-------- 0------ 0------ 2----10|
D| 5-- 5------ 5 3---------- 1----|---- 2---------- 0--------------|
A| 4---- 3-------- 2---------- 1--| 0-------------- 2------ 4------|
E|--------------------------------|--------------------------------|
Classical Guitar Tablature http://classicalguitartablature.blogspot.com/
E|----------------10---- 8-- 5----|12------10----------------------|
B|----13------10--10----10-- 6----|15------13----------------------|
G|----10------ 9--10-------- 7----|14------12----------10------10--|
D|----10------ 8------------ 7----|--------------------10------ 9--|
A|--------------------------------|13--12--------------------------|
E|10---------- 9-- 8---------- 7--|------------11--10------ 9------|
Classical Guitar Tablature http://classicalguitartablature.blogspot.com/
E|--------------------------------|--------------------------------|
B|----1011----10--11------10------| 6-- 6-------------- 6------ 6--|
G|---- 8 9---- 9-- 8------ 8------| 7-- 7------ 7------ 5------ 5--|
D|---- 8 8---- 8------10-- 7------| 7---------- 7------ 5------ 5--|
A|-------- 9------ 8--------------|---------------- 5------ 8------|
E| 8---------------------- 7------| 6------ 8----------------------|
Classical Guitar Tablature http://classicalguitartablature.blogspot.com/
E|---- 5----------10---- 5--------|------------------------------ 5|
B|---- 810----10-- 8---- 6------ 8|---- 6------ 6------ 6 8------ 6|
G|---- 7 9---- 9-- 9---- 6------ 5|---- 7------ 7------ 7 7--------|
D|------ 8---- 8---------------- 7|---- 7------ 7------ 7 6--------|
A| 7-------------------------- 6 5|--------------------------------|
E|--------10------ 9-- 7 5--------|-------- 8---- 7-------- 6---- 5|
Classical Guitar Tablature http://classicalguitartablature.blogspot.com/
E|--------------------------------|--------------------------------|
B|------ 6---------------- 6------|------ 6-------------- 6--------|
G|---- 7---------- 6------ 3---- 5|-------------- 4------ 4------ 3|
D|------------------------ 5------|---- 3---------------- 3--------|
A|------------------------ 4------| 5---------------------------- 5|
E|--------------------------------|------------------------ 5------|
Classical Guitar Tablature http://classicalguitartablature.blogspot.com/
E|-------- 5-- 5------------------|--------------------------------|
B|-------- 6-- 6 8---- 8 6------ 5|---- 5---------------- 2-- 3 5 3|
G|-------- 7-- 7 7---- 7 7---- 7 6|---- 6------ 7---- 2 4 2------ 5|
D|---- 3-------- 8---- 8 6---- 6 5|---- 5------ 5------------------|
A|---------------- 7--------------|-------------- 4-------------- 5|
E|-------- 7-------------- 6------| 5---- 7------------------------|
Classical Guitar Tablature http://classicalguitartablature.blogspot.com/
E|---------------------------- 5--| 6------------------------------|
B|---------- 3 5-- 7-------- 8----| 3---------- 3 6------------ 6 5|
G|-------- 5------ 5------ 5------|------ 3-------------- 4------ 3|
D|---- 4-------------- 7----------|---- 3---------- 6-- 6----------|
A|--------------------------------|---------------- 4--------------|
E|---------------- 5--------------| 3------------------------------|
Classical Guitar Tablature http://classicalguitartablature.blogspot.com/
E|-------------- 3----------------|------------ 0------------------|
B|---------- 5 6------------------| 3-------- 3-- 6----------------|
G|------ 3-------------- 5--------| 1------ 1------ 4---- 4--------|
D|---- 5-------------- 5------ 5--|---- 3-------------- 6------ 6--|
A| 3------------------------------| 2-------------- 5--------------|
E|-------------- 3----------------|--------------------------------|
Classical Guitar Tablature http://classicalguitartablature.blogspot.com/
E|--------------------------------|------------------------ 5----10|
B| 2-------------- 0---- 6---- 3--| 2---------- 0-- 3------ 2----10|
G| 2---- 2-------- 1---- 4---- 1--|-------- 0-------------- 2----10|
D| 2---- 2-------- 0---- 6---- 3--|---- 2-------------- 0----------|
A| 4-- 0---------------------- 2--| 0-------------- 2------ 4------|
E|-------- 3-- 0-- 1---- 4--------|--------------------------------|
Classical Guitar Tablature http://classicalguitartablature.blogspot.com/
E|----------------10---- 8-- 5----|12------10----------------------|
B|----13------10--10----10-- 6----|15------13----------------------|
G|----10------ 9--10-------- 7----|14------12----------10------10--|
D|----10------ 8------------ 7----|--------------------10------ 9--|
A|--------------------------------|13--12--------------------------|
E|10---------- 9-- 8---------- 7--|------------11--10------ 9------|
Classical Guitar Tablature http://classicalguitartablature.blogspot.com/
E|--------------------------------|--------------------------------|
B|----1011----10--11------10------| 6-- 6-------------- 6------ 6--|
G|---- 8 9---- 9-- 8------ 8------| 7-- 7------ 7------ 5------ 5--|
D|---- 8 8---- 8------10-- 7------| 7---------- 7------ 5------ 5--|
A|-------- 9------ 8--------------|---------------- 5------ 8------|
E| 8---------------------- 7------| 6------ 8----------------------|
Classical Guitar Tablature http://classicalguitartablature.blogspot.com/
E|---- 5----------10---- 5--------|------------------------------ 5|
B|---- 810----10-- 8---- 6------ 8|---- 6------ 6------ 6 8------ 6|
G|---- 7 9---- 9-- 9---- 6------ 5|---- 7------ 7------ 7 7--------|
D|------ 8---- 8---------------- 7|---- 7------ 7------ 7 6--------|
A| 7-------------------------- 6 5|--------------------------------|
E|--------10------ 9-- 7 5--------|-------- 8---- 7-------- 6---- 5|
Classical Guitar Tablature http://classicalguitartablature.blogspot.com/
E|--------------------------------|--------------------------------|
B|------ 6---------------- 6------|------ 6-------------- 6--------|
G|---- 7---------- 6------ 3---- 5|-------------- 4------ 4------ 3|
D|------------------------ 5------|---- 3---------------- 3--------|
A|------------------------ 4------| 5---------------------------- 5|
E|--------------------------------|------------------------ 5------|
Classical Guitar Tablature http://classicalguitartablature.blogspot.com/
E|-------- 5-- 5------------------|--------------------------------|
B|-------- 6-- 6 8---- 8 6------ 5|---- 5---------------- 2-- 3 5--|
G|-------- 7-- 7 7---- 7 7---- 7 6|---- 6------ 7---- 2 4 2--------|
D|---- 3-------- 8---- 8 6---- 6 5|---- 5------ 5------------------|
A|---------------- 7--------------|-------------- 4----------------|
E|-------- 7-------------- 6------| 5---- 7------------------------|
Classical Guitar Tablature http://classicalguitartablature.blogspot.com/
E| 5-------------- 5--------------|------ 6------------------------|
B| 7---------- 7-- 7--------------|------ 3------ 6------------ 6 5|
G|------ 5-------------------- 5--|-------------- 4------ 4--------|
D|---- 7-------------- 7------ 4--|---- 3---- 3-- 6---- 6----------|
A| 5------------------------------|-------------- 4----------------|
E|---------------- 5------ 4------| 3------------------------------|
Classical Guitar Tablature http://classicalguitartablature.blogspot.com/
E|------ 5------------------------|-------------- 4---- 4-- 1------|
B|------ 3------ 5----------------| 3-- 3-- 6---- 3---- 3-- 3------|
G| 3------------ 5------------ 5--| 4-- 4-- 4---- 4---- 4-- 1------|
D|---- 5------ 5------ 5----------| 3-- 3-- 6------ 3--------------|
A| 3------------------------------|-------- 5-------------- 2------|
E|-------------- 6------ 5--------| 4------------------------------|
Classical Guitar Tablature http://classicalguitartablature.blogspot.com/
E|-------------------- 0------ 1--| 0------------------------------|
B| 5-- 5-------- 3------------ 1--| 2---------- 2-- 3------ 3-- 5--|
G| 2-- 2------ 2 1------------ 1--|-------- 0------ 0------ 2------|
D| 5-- 5------ 5 3---------- 1----|---- 2---------- 0------ 2------|
A| 4---- 3-------- 2---------- 1--| 0-------------- 2------ 4------|
E|--------------------------------|--------------------------------|
Classical Guitar Tablature http://classicalguitartablature.blogspot.com/
E|--------------------------------|--------------------------------|
B| 6-------------- 8------ 5-- 6--|------ 5------ 3------ 3-- 5-- 6|
G|------ 7-------- 6------ 3-- 5--|------ 5------ 4------ 4-- 4-- 3|
D|---- 7-------- 8------ 5---- 3--|------ 3------ 3------ 3-- 3-- 3|
A|-------------- 7------ 4------ 5|--------------------------------|
E| 5------------------------------|-------------------- 5----------|
Classical Guitar Tablature http://classicalguitartablature.blogspot.com/
E|--------------------------------|---------------------- 0--------|
B|-------------- 5-------------- 2|-------------- 3------ 3---- 3 3|
G|---- 3-------- 7------ 7------ 2|---- 2------ 2-- 2-- 2------ 0 5|
D|---- 3-------- 7---- 7 8------ 2|---- 2------ 2------ 3----------|
A| 5---- 3-------------- 7--------|------------------------------ 5|
E|---------------- 7------------ 5|------ 3------ 1-------- 0------|
Classical Guitar Tablature http://classicalguitartablature.blogspot.com/
E|---------------------------- 5--| 6------------------------------|
B|---------- 3 5-- 7-------- 8----| 3---------- 3 6------------ 6 5|
G|-------- 5------ 5------ 5------|------ 3-------------- 4------ 3|
D|---- 4-------------- 7----------|---- 3---------- 6-- 6----------|
A|--------------------------------|---------------- 4--------------|
E|---------------- 5--------------| 3------------------------------|
Classical Guitar Tablature http://classicalguitartablature.blogspot.com/
E|-------------- 3----------------|------------ 0------------------|
B|---------- 5 6------------------| 3-------- 3-- 6----------------|
G|------ 3-------------- 5--------| 1------ 1------ 4---- 4--------|
D|---- 5-------------- 5------ 5--|---- 3-------------- 6------ 6--|
A| 3------------------------------| 2-------------- 5--------------|
E|-------------- 3----------------|--------------------------------|
Classical Guitar Tablature http://classicalguitartablature.blogspot.com/
E|--------------------------------|--------------------------------|
B| 2-------------- 0---- 6---- 3--| 2---------- 2------ 0 2-- 3 5 3|
G| 2---- 2-------- 1---- 4---- 1--|-------- 0------ 2---- 2------ 5|
D| 2---- 2-------- 0---- 6---- 3--|---- 2---------------- 2--------|
A| 4-- 0---------------------- 2--| 0------------ 2------ 4------ 5|
E|-------- 3-- 0-- 1---- 4--------|--------------------------------|
Classical Guitar Tablature http://classicalguitartablature.blogspot.com/
E|---------------------------- 5--| 6------------------------------|
B|---------- 3 5-- 7-------- 8----| 3---------- 3 6------------ 6 5|
G|-------- 5------ 5------ 5------|------ 3-------------- 4------ 3|
D|---- 4-------------- 7----------|---- 3---------- 6-- 6----------|
A|--------------------------------|---------------- 4--------------|
E|---------------- 5--------------| 3------------------------------|
Classical Guitar Tablature http://classicalguitartablature.blogspot.com/
E|-------------- 3----------------|------------ 0------------------|
B|---------- 5 6------------------| 3-------- 3-- 6----------------|
G|------ 3-------------- 5--------| 1------ 1------ 4---- 4--------|
D|---- 5-------------- 5------ 5--|---- 3-------------- 6------ 6--|
A| 3------------------------------| 2-------------- 5--------------|
E|-------------- 3----------------|--------------------------------|
Classical Guitar Tablature http://classicalguitartablature.blogspot.com/
E|--------------------------------|------------------------------ 5|
B| 2-------------- 0---- 6---- 3--| 2---------- 2------ 0 2-- 3 5 6|
G| 2---- 2-------- 1---- 4---- 1--|-------- 0------ 2---- 2--------|
D| 2---- 2-------- 0---- 6---- 3--|---- 2---------------- 2--------|
A| 4-- 0---------------------- 2--| 0------------ 2------ 4--------|
E|-------- 3-- 0-- 1---- 4--------|------------------------------ 5|
Classical Guitar Tablature http://classicalguitartablature.blogspot.com/
E|--------------------------------|--------------------------------|
B|------ 6---------------- 6------|------ 6-------------- 6--------|
G|---- 7---------- 6------ 3---- 5|-------------- 4------ 4------ 3|
D|------------------------ 5------|---- 3---------------- 3--------|
A|------------------------ 4------| 5---------------------------- 5|
E|--------------------------------|------------------------ 5------|
Classical Guitar Tablature http://classicalguitartablature.blogspot.com/
E|-------- 5-- 5------------------|--------------------------------|
B|-------- 6-- 6 8---- 8 6------ 5|---- 5-------- 5---- 5-- 6------|
G|-------- 7-- 7 7---- 7 7---- 7 6|---- 6------ 7 2---- 2-- 6------|
D|---- 3-------- 8---- 8 6---- 6 5|---- 5------ 5 5-------- 5------|
A|---------------- 7--------------|---------------- 4------ 6------|
E|-------- 7-------------- 6------| 5---- 7------------------------|
Classical Guitar Tablature http://classicalguitartablature.blogspot.com/
E|--------------------------------|--------------------------------|
B|------ 6-------------- 6--------|------ 6-------------- 6--------|
G| 7------------ 6------ 3------ 5|-------------- 4------ 4------ 3|
D| 7-------------------- 5------ 3|---------------------- 3------ 3|
A|---------------------- 4------ 5|------------------------------ 5|
E| 5------------------------------|---------------------- 5--------|
Classical Guitar Tablature http://classicalguitartablature.blogspot.com/
E|------ 5------ 3----------------|--------------------------------|
B|------ 5------ 5------ 6------ 5|------------ 5 3------ 5--------|
G|------------------------------ 6|------ 6------ 0------ 2--------|
D|---- 3--------------------------|---- 5---------------- 2--------|
A|--------------------------------|---------------- 2---- 4--------|
E|------------------------------ 5|--------------------------------|
Classical Guitar Tablature http://classicalguitartablature.blogspot.com/
E|--------------------------------|--------------------------------|
B| 3------------------------------|--------------------------------|
G| 4------------------------------|--------------------------------|
D| 3------------------------------|--------------------------------|
A| 5------------------------------|--------------------------------|
E|--------------------------------|--------------------------------|

0 ความคิดเห็น:

แสดงความคิดเห็น