To celebrate the anniversary, I am giving you (finally...) : iPhone LickByNeck !!!!!!

Mr. Sandman

Classic tune fingerstyle chord melody guitar arrangement played in the key of A.


Mr. Sandman played in the key of A.
Classical Guitar Tablature http://classicalguitartablature.blogspot.com/
E|---------- 4--------------------|--------------------------------|
B|------ 5-------- 7 5------------|------ 7--10-- 9----------------|
G|-- 6------------------ 6--------|-- 7----------------------------|
D| 7------------------------ 7-- 9|--------------------------------|
A| 0------------------------------|--------------------------------|
E|------------------------------ 7|------------------------ 0------|
Classical Guitar Tablature http://classicalguitartablature.blogspot.com/
E|------------ 4------------------|------------------------------ 4|
B|-------- 5------ 7 5------------|------ 7--10-- 9------ 5-- 7-- 5|
G|---- 6---------------- 6--------|-- 7------------------ 7-- 7-- 6|
D| 7-------------------------- 7 9|---------------------- 6-- 6----|
A| 0------------------------------|--------------------------------|
E|------------------------------ 7|---------------------- 0--------|
Classical Guitar Tablature http://classicalguitartablature.blogspot.com/
E|---- 2------------------------ 4|-- 4-- 2-- 4--------------------|
B|---- 2------ 2---------------- 4|---- 4 1-- 1--------------------|
G|---- 2------ 2-- 2---------- 2--| 5-- 5 1-------- 5---------- 5--|
D|------------ 2------ 2------ 2--|---- 4---- 1-------- 4------ 4--|
A|-------- 4----------------------|---------------- 6------ 5---- 4|
E| 5-------------- 0------ 2------| 4---- 2------------------------|
Classical Guitar Tablature http://classicalguitartablature.blogspot.com/
E|-- 5---------- 5------ 4--------|--------------------------------|
B|-- 5--10-- 9-- 5------ 2------ 3|---- 3 2---- 3------------------|
G|-- 4-- 6-- 6-- 4------ 1------ 3|---- 3 3---- 3------ 3------ 3--|
D|-- 3-- 6---- 6---- 3-------- 3--| 2-- 2 2---- 2------ 2------ 2--|
A|--------------------------------|---------------- 4------ 3------|
E|-------- 7-- 7 4------ 1--------| 2------ 0----------------------|
Classical Guitar Tablature http://classicalguitartablature.blogspot.com/
E|---- 4 4-- 2-- 4----------------|--------------------------------|
B|---- 2 2-- 2-- 7------ 7--------| 2-- 2-- 0-- 2------ 5----------|
G|---- 2 2---- 2-- 4------ 4------| 1-- 1-- 2-- 4------ 4---- 4----|
D|-------------------- 4------ 4--| 0------ 0-- 2------ 2------ 2--|
A| 2------ 4------ 5------ 6------|---- 2--------------------------|
E|--------------------------------| 0------ 2------ 3---- 4--------|
Classical Guitar Tablature http://classicalguitartablature.blogspot.com/
E|---- 7-- 7------ 7-- 5----------|---------- 8-- 9-------------- 4|
B|---- 5--10--10-- 5-- 5--12--10--|13-------- 8-- 7----12-------- 5|
G|---- 6-- 9-- 9-- 6-- 6-- 9-- 9--|10---------- 8 7---- 9 9---- 7 6|
D|------------ 7----------11--11--|10------------------ 9 9---- 7--|
A|---- 7------ 7-- 7------ 9------|12--10-- 9-- 8-- 7--------------|
E| 5------ 9----------------------|--------------------10-- 9-- 7--|
Classical Guitar Tablature http://classicalguitartablature.blogspot.com/
E|---- 2------------------------ 4|-- 4-- 2-- 4--------------------|
B|---- 2------ 2---------------- 4|---- 4 1-- 1--------------------|
G|---- 2------ 2-- 2---------- 2--| 5-- 5 1-------- 5---------- 5--|
D|------------ 2------ 2------ 2--|---- 4---- 1-------- 4------ 4--|
A|-------- 4----------------------|---------------- 6------ 5---- 4|
E| 5-------------- 0------ 2------| 4---- 2------------------------|
Classical Guitar Tablature http://classicalguitartablature.blogspot.com/
E|-- 5---------- 5------ 4--------|--------------------------------|
B|-- 5--10-- 9-- 5------ 2------ 3|---- 3 2---- 3------------------|
G|-- 4-- 6-- 6-- 4------ 1------ 3|---- 3 3---- 3------ 3------ 3--|
D|-- 3-- 6---- 6---- 3-------- 3--| 2-- 2 2---- 2------ 2------ 2--|
A|--------------------------------|---------------- 4------ 3------|
E|-------- 7-- 7 4------ 1--------| 2------ 0----------------------|
Classical Guitar Tablature http://classicalguitartablature.blogspot.com/
E|------------ 2------ 5-- 5-- 5--|---------------------------- 7--|
B| 0------ 3-- 3------ 3-- 7-- 6--|12---- 6-------- 3----10----10--|
G| 2------ 4-- 4------ 2-- 7-- 6--|10------ 7------ 4---- 7---- 7--|
D| 0-- 0-- 4-- 4------------------| 9------ 7------ 3---- 7--------|
A| 2------ 0---------- 2-- 7-- 6--|------------------------ 9-- 8--|
E|---------------- 2--------------|10-- 9-- 7-- 6-- 5-- 4----------|
Classical Guitar Tablature http://classicalguitartablature.blogspot.com/
E| 9------ 9------ 9------ 9-- 5--|---------------------- 5---- 7 9|
B|10------10------12--10-- 9-- 8--|------ 7------ 7------ 3---- 3 7|
G| 9-- 9--11------11-- 9-- 8-- 7--|------ 6------ 7------ 4---- 4--|
D|------------11------ 8-- 7------|---- 5------ 4---- 4------------|
A| 7------------------------------|------------------------------ 9|
E|--------11------10-- 8-- 7------| 6---- 5-------- 4---- 3--------|
Classical Guitar Tablature http://classicalguitartablature.blogspot.com/
E|------ 9------ 9------ 9--------|---------------------- 5-- 7----|
B|-------- 9----10----10--10--10--|------10------------10 8-- 7----|
G|---- 9-- 7-- 711----11--10-- 9--|---- 9 9------------ 8 7---- 6--|
D|--------------------11------ 9--|---- 9 8---- 8------ 7----------|
A|-------- 8----------------------|--------------------------------|
E|----------------12--11--10---- 9|------ 8-------- 7------ 6-- 5--|
Classical Guitar Tablature http://classicalguitartablature.blogspot.com/
E| 9------ 9---- 9-------- 9---- 9|---------------- 9------------ 5|
B|12------10--10-- 7------ 9----10|--------10----10----------------|
G|11--11--10--10------ 9-- 7 7----|--11----11------10---- 7--------|
D|--------------------------------|----------11------------ 7 6----|
A|11------10------ 9------ 8------|------------------------------ 0|
E|--------------------------------|12------11------10-- 9-- 7-- 6--|
Classical Guitar Tablature http://classicalguitartablature.blogspot.com/
E|------------ 4------------------|--------------------------------|
B|-------- 5------ 7 5------------|-------- 7--10-- 9--------------|
G|---- 6------------------ 6------|---- 7--------------------------|
D|---------------------------- 7--| 9------------------------------|
A|--------------------------------|--------------------------------|
E|--------------------------------| 7---------------------- 0------|
Classical Guitar Tablature http://classicalguitartablature.blogspot.com/
E|------------ 4------------------|---------- 5-- 4-------- 0-- 2--|
B|---- 2-- 5-- 2-- 7-- 5-- 2---- 0|-- 3-- 7-- 5-- 3-------- 3-- 2--|
G| 2-- 2-- 2-- 1-- 6-- 4-- 2-- 2 2|---- 0 7-- 4-- 4-------- 2-- 4--|
D| 2-- 2-- 4------ 7-- 6-- 2-- 4--| 0-- 2-- 7 3--------------------|
A|---------------- 6-- 5-- 4-- 3--| 2-- 1--------------------------|
E| 5-- 3-- 2-- 0------------------|-------- 5-- 3-- 2------ 1-- 3--|
Classical Guitar Tablature http://classicalguitartablature.blogspot.com/
E| 4------------------------------|--------------------------------|
B| 5------ 7----------------------|--------------------------------|
G| 5------ 6----------------------|--------------------------------|
D| 4------ 7----------------------|--------------------------------|
A|--------------------------------|--------------------------------|
E| 4------ 5----------------------|--------------------------------|

0 ความคิดเห็น:

แสดงความคิดเห็น