To celebrate the anniversary, I am giving you (finally...) : iPhone LickByNeck !!!!!!

The Muppets Show Theme

The Muppets Show theme song fingerstyle chord melody guitar arrangement played in the key of A.

The Muppets Show Theme played in the key of A.
Classical Guitar Tablaturehttp://classicalguitartablature.blogspot.com/
E|--------------------------------|--------------------------------|
B|--------------------------------| 4---- 4-- 4---------- 4--------|
G| 3---- 3-- 3---------- 3--------|------------------ 4------------|
D|------------------ 4------------|--------------------------------|
A|--------------------------------|--------------------------------|
E| 2------------------------------| 1------------------------------|
Classical Guitar Tablaturehttp://classicalguitartablature.blogspot.com/
E| 2---- 2---- 2------------------|--------------------------------|
B|------------------ 4------------| 2------------------------------|
G|------------------------ 4------| 4---------------------------- 6|
D|--------------------------------| 3------------------------------|
A|--------------------------------| 4------ 4------ 5---- 6--------|
E| 0------------------------------|--------------------------------|
Classical Guitar Tablaturehttp://classicalguitartablature.blogspot.com/
E|--------------------------------|--------------------------------|
B|--------------------------------| 7---- 7---- 7---------- 7------|
G|------ 6-- 6------------ 6------| 6------------------ 6-------- 4|
D| 7------------------ 7----------| 7------------------------------|
A| 7------------------------------| 6------------------------------|
E|--------------------------------|--------------------------------|
Classical Guitar Tablaturehttp://classicalguitartablature.blogspot.com/
E|---------------- 2---- 3--------| 4------------------------------|
B| 5-- 5------ 5-- 3---- 3--------| 3------------------------------|
G|---- 4------ 4-- 2------ 2------| 4------------------------------|
D| 2-- 2------ 2------------------|--------------------------------|
A|--------------------------------|--------------------------------|
E| 4-- 4------ 4-- 2------ 1------| 0------ 0------ 2------ 4------|
Classical Guitar Tablaturehttp://classicalguitartablature.blogspot.com/
E|--------------------------------|--------------------------------|
B|------ 5------------------------|------ 7------------ 5----------|
G|------ 6---------------- 8------|------ 7------------ 7----------|
D|-------- 6-------------- 7------|------ 7------------ 6----------|
A|--------------------------------|------------ 7-------- 7--------|
E| 5------------ 8-------------- 7|--------------------------------|
Classical Guitar Tablaturehttp://classicalguitartablature.blogspot.com/
E|--------------------------------|--------------------------------|
B|------ 5------------------------|------ 7------------ 5----------|
G|------ 6---------------- 8------|------ 7------------ 7----------|
D|-------- 6-------------- 7------|------ 7------------ 6----------|
A|--------------------------------|------------ 7-------- 7--------|
E| 5------------ 8-------------- 7|--------------------------------|
Classical Guitar Tablaturehttp://classicalguitartablature.blogspot.com/
E|------ 5------------------------|--------------------------------|
B|------ 5--------10------ 7------| 9------ 7-- 9-------- 7--------|
G|------ 6-------- 8------ 8------| 7------ 7-- 7------------ 9----|
D|---------------- 7------ 7------| 7------ 7-- 9------------------|
A|--------------------------------|------------------ 7------------|
E| 5-------------- 8--------------| 7------------------------------|
Classical Guitar Tablaturehttp://classicalguitartablature.blogspot.com/
E|------ 5------------------------|--------------------------------|
B|------ 5--------10------ 7------| 9------ 7-- 5------------------|
G|------ 6-------- 8------ 8------| 7------ 7-- 7---------- 7------|
D|---------------- 7------ 7------| 7------ 7-- 6---------- 6------|
A|--------------------------------|---------------- 7--------------|
E| 5-------------- 8--------------| 7------------------------------|
Classical Guitar Tablaturehttp://classicalguitartablature.blogspot.com/
E|--------------------------------|-------------------- 5----------|
B|-------- 2------ 2------ 5---- 3|-------- 2 3-------- 3-------- 2|
G|-------- 2------ 2------ 2------| 2------ 2 2-------- 2------ 4 2|
D|-------- 2------ 2------ 2------| 2------ 2-- 1---------------- 0|
A|--------------------------------|--------------------------------|
E| 5-------------- 3--------------| 2-------------- 1--------------|
Classical Guitar Tablaturehttp://classicalguitartablature.blogspot.com/
E|------------------------ 0------|--------------------------------|
B|------ 2-- 2------ 2---- 0------|--------------------------------|
G|------ 2---- 2---- 2---- 1------|--------------------------------|
D|------ 0-- 1--------------------|--------------------------------|
A|--------------------------------|--------------------------------|
E| 2---------- 1------------ 0----|------ 0-------- 2------ 4------|
Classical Guitar Tablaturehttp://classicalguitartablature.blogspot.com/
E|------ 5------------------------|--------------------------------|
B|------ 5--------10------ 7------| 9------ 7-- 9-------- 7--------|
G|------ 6-------- 8------ 8------| 7------ 7-- 7------------ 9----|
D|---------------- 7------ 7------| 7------ 7-- 9------------------|
A|--------------------------------|------------------ 7------------|
E| 5-------------- 8--------------| 7------------------------------|
Classical Guitar Tablaturehttp://classicalguitartablature.blogspot.com/
E|------ 5------------------------|--------------------------------|
B|------ 5--------10------ 7------| 9------ 7-- 5------------------|
G|------ 6-------- 8------ 8------| 7------ 7-- 7---------- 7------|
D|---------------- 7------ 7------| 7------ 7-- 6---------- 6------|
A|--------------------------------|---------------- 7--------------|
E| 5-------------- 8--------------| 7------------------------------|
Classical Guitar Tablaturehttp://classicalguitartablature.blogspot.com/
E|--------------------------------|-------------------- 5----------|
B|-------- 2------ 2------ 5---- 3|-------- 2 3-------- 3-------- 2|
G|-------- 2------ 2------ 2------| 2------ 2 2-------- 2------ 4 1|
D|-------- 2------ 2------ 2------| 2------ 2-- 1------------------|
A|--------------------------------|--------------------------------|
E| 5-------------- 3--------------| 2-------------- 1--------------|
Classical Guitar Tablaturehttp://classicalguitartablature.blogspot.com/
E|--------------------------------|---------------------- 5------ 7|
B|------ 2---- 0---- 0------------|---------------------- 2------ 7|
G|------------ 2-------- 2--------|---------------------- 2------ 6|
D| 0---- 0---- 0------ 0 2--------|--------------------------------|
A|--------------------------------|---------------- 2---- 4------ 5|
E| 0------ 0-- 2---------- 5------|------ 5------------------------|
Classical Guitar Tablaturehttp://classicalguitartablature.blogspot.com/
E|-------- 5------------ 7------ 5|---------------------- 5------ 7|
B|-------- 7------ 9---- 9------ 5|-------- 5------------ 5------ 7|
G|-------- 6------ 7------ 7---- 6|-------- 6------------ 6------ 6|
D|---------------- 9--------------|-------- 7-------------- 5------|
A|---------------- 8--------------| 7---------------------------- 5|
E|--------------------------------|---------------- 5--------------|
Classical Guitar Tablaturehttp://classicalguitartablature.blogspot.com/
E|-------- 5------------ 7------ 5|---------------------- 5------ 7|
B|-------- 7------ 9---- 9--------| 5-------------------- 5------ 7|
G|-------- 6------ 7------ 7------| 6-------------------- 6------ 6|
D|---------------- 9--------------|-------- 7-------------- 5------|
A|---------------- 8--------------| 7------------------------------|
E|--------------------------------|---------------- 5--------------|
Classical Guitar Tablaturehttp://classicalguitartablature.blogspot.com/
E|-------- 5---- 4-------- 7---- 9|--------------------------------|
B|-------- 7---- 6-------- 6----10|---------------------- 5--------|
G|-------- 6---- 4-------- 4------| 9------ 9------------ 6------ 8|
D|--------------------------------|------11-------------- 4--------|
A| 5-------------- 4--------------| 9------------------------------|
E|--------------------------------|-------------- 6----------------|
Classical Guitar Tablaturehttp://classicalguitartablature.blogspot.com/
E|---------- 4------ 5-- 7--------|--------------------------------|
B| 7---- 7-- 4------ 4-- 5--------|--------------------------------|
G|------ 8-- 4---------- 4--------|--------------------------------|
D| 7------------------------------|--------------------------------|
A|--------------------------------|--------------------------------|
E| 7-------- 5---------- 4--------|-------- 0------ 2---- 4--------|
Classical Guitar Tablaturehttp://classicalguitartablature.blogspot.com/
E|------ 5------------------------|--------------------------------|
B|------ 5--------10------ 7------| 9------ 7-- 9-------- 7--------|
G|------ 6-------- 8------ 8------| 7------ 7-- 7------------ 9----|
D|---------------- 7------ 7------| 7------ 7-- 9------------------|
A|--------------------------------|------------------ 7------------|
E| 5-------------- 8--------------| 7------------------------------|
Classical Guitar Tablaturehttp://classicalguitartablature.blogspot.com/
E|------ 5------------------------|--------------------------------|
B|------ 5--------10------ 7------| 9------ 7-- 5------------------|
G|------ 6-------- 8------ 8------| 7------ 7-- 7---------- 7------|
D|---------------- 7------ 7------| 7------ 7-- 6---------- 6------|
A|--------------------------------|---------------- 7--------------|
E| 5-------------- 8--------------| 7------------------------------|
Classical Guitar Tablaturehttp://classicalguitartablature.blogspot.com/
E|--------------------------------|-------------------- 5----------|
B|-------- 2------ 2------ 5---- 3|-------- 2 3-------- 3----------|
G|-------- 2------ 2------ 2------| 2------ 2 2-------- 2----------|
D|-------- 2------ 2------ 2------| 2------ 2-- 1------------------|
A|--------------------------------|--------------------------------|
E| 5-------------- 3--------------| 2-------------- 1--------------|
Classical Guitar Tablaturehttp://classicalguitartablature.blogspot.com/
E|--------------------------------|-------------------- 5----------|
B|-------- 2------ 2------ 5---- 3|-------- 2 3-------- 3----------|
G|-------- 2------ 2------ 2------| 2------ 2-- 2------ 2----------|
D|-------- 2------ 2------ 2------| 2------ 2-- 1------------------|
A|--------------------------------|--------------------------------|
E| 5-------------- 3--------------| 2-------------- 1--------------|
Classical Guitar Tablaturehttp://classicalguitartablature.blogspot.com/
E|--------------------------------|-------------------- 5----------|
B|-------- 2------ 2------ 5---- 3|-------- 2 3-------- 3----------|
G|-------- 2------ 2------ 2------| 2------ 2-- 2------ 2 2-- 4----|
D|-------- 2------ 2------ 2------| 2------ 2-- 1------------------|
A|--------------------------------|--------------------------------|
E| 5-------------- 3--------------| 2-------------- 1--------------|
Classical Guitar Tablaturehttp://classicalguitartablature.blogspot.com/
E|--------------------------------|--------------------------------|
B|--------------------------------| 7------ 7-- 7---------- 7------|
G| 6---- 6---- 6---------- 6------| 6------------------ 6----------|
D| 7------------------ 7----------| 7------------------------------|
A| 7------------------------------| 6------------------------------|
E|--------------------------------|--------------------------------|
Classical Guitar Tablaturehttp://classicalguitartablature.blogspot.com/
E| 5---- 5---- 5-------- 5------10|------10--10------------10------|
B| 7---- 7---- 7---- 7-- 7------10|------10--10------10----10---- 7|
G| 6---- 6---- 6---- 6---------- 9|------ 9-- 9------ 9---- 9---- 7|
D|------------------ 7------------|------------------ 9---------- 7|
A| 5------------------------------|--------------------------------|
E|------------------------------ 9|--------------------------------|
Classical Guitar Tablaturehttp://classicalguitartablature.blogspot.com/
E|---------------- 4--------------| 5-------------- 7--------------|
B|---------------- 7--------------| 3-------------- 8--------------|
G|---------------- 7--------------| 2-------------- 8--------------|
D|--------------------------------|--------------------------------|
A|--------------------------------|---------------------- 8--------|
E|-------- 7-------------- 5------|-------- 2----------------------|
Classical Guitar Tablaturehttp://classicalguitartablature.blogspot.com/
E| 9------ 9---- 9------ 9------ 9|-------- 9---- 9------ 9--------|
B|10------10----10------10------10|--------10----10------10--------|
G|11------------11--------11------|10------10----10------10--------|
D|--------------------------------|--------------------------------|
A|--------------------------------|--------------------------------|
E| 0------ 0------ 0------ 0------| 0------ 0------ 0------ 0------|
Classical Guitar Tablaturehttp://classicalguitartablature.blogspot.com/
E|12--------------12--------------|12------------12--------------12|
B|10--------------10--------------|10------------10--------------10|
G| 9-------------- 9--------------| 9------------ 9----------------|
D|--------------------------------| 0-------------- 0--------------|
A| 0-------------- 0--------------| 0------------ 0----------------|
E|-------- 0-------------- 0------|-------- 0-------------- 0------|
Classical Guitar Tablaturehttp://classicalguitartablature.blogspot.com/
E|--------------------------------|--------------------------------|
B|--------------------------------|--------------------------------|
G| 9------------------------------|--------------------------------|
D|--------------------------------|--------------------------------|
A| 0------------------------------|--------------------------------|
E|--------------------------------|--------------------------------|
Classical Guitar Tablaturehttp://classicalguitartablature.blogspot.com/

0 ความคิดเห็น:

แสดงความคิดเห็น