To celebrate the anniversary, I am giving you (finally...) : iPhone LickByNeck !!!!!!

A Nightingale Sang In Berkeley Square

A beautiful Jazz ballad fingerstyle solo guitar arrangement played in the key of D.
http://classicalguitartablature.blogspot.com/

http://classicalguitartablature.blogspot.com/
A Nightingale SangIn Berkeley Square played in the key of D.
http://classicalguitartablature.blogspot.com/
E|---- 7--------------------------| 2-- 2--------------------------|
B|---- 8--10-- 8---- 7------ 5----| 1-- 1---- 5---- 3-- 3---- 2----|
G|---- 7-- 9-- 7---- 6------ 2----| 2-- 2---- 5---- 3-- 3---- 2----|
D|-------- 7-- 5---- 5------ 2----|---------- 4---- 2-- 2---- 1----|
A|--------------------------------|---------------- 3------ 2------|
E| 0------ 9-- 7-- 5-- 5-- 3-- 3--| 2------ 5-- 5-------------- 1 0|
http://classicalguitartablature.blogspot.com/
E|---- 3-- 2----------------------|--------------------------------|
B|---- 3-- 2-- 5-- 3-- 3---- 2----| 3-------- 3---- 3-- 3----------|
G|---- 3-- 2-- 4-- 4-- 4---- 2----| 3------ 3------ 4-- 4-- 2------|
D|---- 2------ 5-- 4-- 4---- 5----| 5-- 5---------- 5-- 5-- 3------|
A|--------------------------------| 6---------------------- 4------|
E|-------- 2-- 3-- 4------ 5-- 5--|---------------- 5--------------|
http://classicalguitartablature.blogspot.com/
E| 2------ 2----------------------| 5------ 5-------------------- 7|
B| 3------ 3-- 3-- 3---------- 3--| 2------ 7-- 7 7---- 7 3---- 3 7|
G| 2------ 3-- 3-- 2---------- 2--| 2------ 6-- 6 5---- 5 5---- 3 7|
D|---------------- 4-------- 1----|---- 3------ 7-- 7-- 7 4---- 2--|
A| 5-- 4-- 3------ 2--------------|-------- 7-- 6-- 5------------10|
E|-------------------- 5-- 1------| 2------------------ 5-- 4-- 2--|
http://classicalguitartablature.blogspot.com/
E|---- 7---- 7---- 9-- 9---- 9----|10-------------- 3--10--10--10--|
B|---- 7---- 8----12--12----10----| 7-- 7-- 7-- 7-- 5-- 8--12--12--|
G|---- 7---- 7----11--12---- 9----| 7------ 7-- 7-- 3-- 9--11--12--|
D|--------------------------------|---- 8-- 7-- 6-- 5-- 8----------|
A|---- 9 7---- 7------------------|------------------------11--12--|
E|----------------10---- 9-- 8----| 7------------------------------|
http://classicalguitartablature.blogspot.com/
E| 9------------ 7-------------- 5|---- 5---------- 5------ 3-- 3--|
B|10----10------ 8---- 7 8--------| 5-- 6-- 3-- 3-- 3------ 3-- 5--|
G|11--10 9---- 8 8---- 5 7---- 7--| 5-- 6-- 5-- 3-- 3------ 3-- 4--|
D|---- 9 8---- 7------ 7 6---- 6--|-------- 4-- 2------------------|
A|-------------- 8---- 6 7--------|---- 6------------ 5 4-- 3-- 4--|
E|10-- 9-- 8-- 7-------------- 6--| 5------ 4-- 2-- 3--------------|
http://classicalguitartablature.blogspot.com/
E| 2-- 3-- 5----------------------|--------------------------------|
B| 2-- 3-- 5---- 3-------- 3 3 3--| 3-- 3-- 3-- 3-- 5------ 5------|
G| 2-- 4-- 4-- 3-- 2------ 4 3 2--| 0-- 2-- 2-- 4-- 6------ 2------|
D|------------ 3-- 0------ 4 2 1--| 0-- 2-- 2-- 4-- 5------ 2------|
A|-------- 4-- 3-- 2 1 0----------|------------------------ 3-- 4--|
E| 2-- 3------------------ 4 3 1--| 0-- 2-- 3-- 4-- 5-- 7----------|
http://classicalguitartablature.blogspot.com/
E|--------------------------------|--------------------------------|
B| 3-- 3-- 3-- 3------ 3-- 3-- 3--|---- 3 3---- 3------ 3----------|
G| 4-- 4-- 4-- 4---------- 2-- 2--|---- 2 3---- 5------ 5 2--------|
D| 4-- 4-- 4-- 2------ 2-- 3-- 3--|-------- 5-- 5-------- 3--------|
A| 5---------- 3-------------- 1--|-------- 6------------ 4--------|
E|-------- 3-------------- 1------|------------ 4------------------|
http://classicalguitartablature.blogspot.com/
E| 2------ 2----------------------| 5------ 5-------------------- 7|
B| 3------ 3-- 3-- 3---------- 3--| 2------ 7-- 7 7---- 7 3---- 3 7|
G| 2------ 3-- 3-- 2---------- 2--| 2------ 6-- 6 5---- 5 5---- 3 7|
D|---------------- 4-------- 1----|---- 3------ 7-- 7-- 7 4---- 2--|
A| 5-- 4-- 3------ 2--------------|-------- 7-- 6-- 5------------10|
E|-------------------- 5-- 1------| 2------------------ 5-- 4-- 2--|
http://classicalguitartablature.blogspot.com/
E|---- 7---- 7---- 9-- 9---- 9----|10-------------- 3--10--10--10--|
B|---- 710-- 8---- 8--12---- 8----| 7-- 7-- 7-- 7-- 5-- 8--12--12--|
G|---- 7 8-- 7---- 9--11---- 9----| 7------ 7-- 7-- 3-- 9--11--12--|
D|------ 7------------ 9------ 8--|---- 8-- 7-- 6-- 5-- 8----------|
A|-- 9-- 8---- 7-- 6--------------|------------------------11--12--|
E|--------------------10-- 9-- 8--| 7------------------------------|
http://classicalguitartablature.blogspot.com/
E| 9------------ 7-------------- 5|---- 5---------- 5------ 3-- 3--|
B|10----10------ 8---- 7 8--------| 5-- 6-- 3-- 3-- 3------ 3-- 5--|
G|11--10 9---- 8 8---- 5 7---- 7--| 5-- 6-- 5-- 3-- 3------ 3-- 4--|
D|---- 9 8---- 7------ 7 6---- 6--|-------- 4-- 2------------------|
A|-------------- 8---- 6 7--------|---- 6------------ 5 4-- 3-- 4--|
E|10-- 9-- 8-- 7-------------- 6--| 5------ 4-- 2-- 3--------------|
http://classicalguitartablature.blogspot.com/
E| 2-- 3-- 5----------------------|--------------------------------|
B| 2-- 3-- 5---- 3-------- 3 3 3--| 3-- 3-- 3-- 3-- 5------ 5------|
G| 2-- 4-- 4-- 3-- 2------ 4 3 2--| 0-- 2-- 2-- 4-- 6------ 2------|
D|------------ 3-- 0------ 4 2 1--| 0-- 2-- 2-- 4-- 5------ 2------|
A|-------- 4-- 3-- 2 1 0----------|------------------------ 3-- 4--|
E| 2-- 3------------------ 4 3 1--| 0-- 2-- 3-- 4-- 5-- 7----------|
http://classicalguitartablature.blogspot.com/
E|--------------------------------|--------------------------------|
B| 3-- 3-- 3-- 2------------ 3----| 3------ 7-- 5-- 5-- 5---- 5----|
G| 4-- 4-- 3-- 0-- 7---- 7-- 4----| 4-- 5-- 7-- 5-- 4-- 4---- 4----|
D| 4-- 3-- 2-- 2-- 7---- 5-- 4----| 4-- 4-- 6-- 4-- 3-- 3---- 3----|
A| 5-- 4-- 3-- 1------------------|------------ 5-- 4--------------|
E|---------------- 7---- 6-- 5----| 4-- 5-- 7------------ 3---- 3--|
http://classicalguitartablature.blogspot.com/
E|---------------------------- 7 9|---- 9------ 6------------ 6----|
B|---- 2-- 4-- 6-- 7-- 9--11-- 7--| 7-- 6-- 7-- 7------------ 7----|
G| 3-- 3-- 6-- 4-- 6--10--11-- 6--| 8-- 6-- 8-- 8------------ 8----|
D| 3-- 3-- 4-- 6-- 8-- 9--11------| 6------ 9----------------------|
A|---- 4---------- 6--------------|--------------------------------|
E| 2------ 6-- 4------10-- 9-- 5--|---- 6-- 7-- 7-- 8-- 7-- 6-- 6--|
http://classicalguitartablature.blogspot.com/
E|--------------------------------|--------------------------------|
B| 9-- 9-- 9-- 9-- 6-- 6------ 6--| 4-- 4-- 4-- 4---------- 2-- 2--|
G| 6-- 6-- 8-- 8-- 5-- 5---- 5----| 4-- 3-- 4-- 4-- 6------ 4-- 2--|
D| 6-- 6--10--10-- 7-- 7---- 4----| 4-- 2-- 4-- 4-- 6------ 3-- 1--|
A|-------- 9------ 6--------------|------------ 6-- 8-- 6-- 4------|
E| 6-------------------- 5--------| 4-- 3-- 2------------------ 1--|
http://classicalguitartablature.blogspot.com/
E|---------------------------- 7 9|---- 9------ 6------------ 6----|
B|---- 2-- 4-- 6-- 7-- 9--11-- 7--| 7-- 6-- 7-- 7------------ 7----|
G| 3-- 3-- 6-- 4-- 6--10--11-- 6--| 8-- 6-- 8-- 8------------ 8----|
D| 3-- 3-- 4-- 6-- 8-- 9--11------| 6------ 9----------------------|
A|---- 4---------- 6--------------|--------------------------------|
E| 2------ 6-- 4------10-- 9-- 5--|---- 6-- 7-- 7-- 8-- 7-- 6-- 6--|
http://classicalguitartablature.blogspot.com/
E|--------------------------------| 7---------- 7------------------|
B| 9-- 9-- 9-- 9-- 7-- 7-- 7-- 7--| 8--1212---- 8--10--------------|
G| 6-- 6-- 8-- 9-- 7-- 5-- 9-- 8--| 7--1112---- 7-- 9-- 7-- 9-- 2--|
D| 6-- 6--10-- 8-- 6-- 7-- 8-- 7--|----1012-------- 7-- 5-- 7-- 3--|
A|-------- 9-- 9-- 7-- 5----------| 7-------------------------- 4--|
E| 6---------------------- 8-- 7--|----1110---- 7-- 9-- 7-- 8------|
http://classicalguitartablature.blogspot.com/
E| 2------ 2----------------------| 5------ 5-------------------- 7|
B| 3------ 3-- 3-- 3---------- 3--| 2------ 7-- 7 7---- 7 3---- 3 7|
G| 2------ 3-- 3-- 2---------- 2--| 2------ 6-- 6 5---- 5 5---- 3 7|
D|---------------- 4-------- 1----|---- 3------ 7-- 7-- 7 4---- 2--|
A| 5-- 4-- 3------ 2--------------|-------- 7-- 6-- 5------------10|
E|-------------------- 5-- 1------| 2------------------ 5-- 4-- 2--|
http://classicalguitartablature.blogspot.com/
E|---- 7---- 7---- 9-- 9---- 9----|10-------------- 3--10--10--10--|
B|---- 710-- 8---- 8--12---- 8----| 7-- 7-- 7-- 7-- 5-- 8--12--12--|
G|---- 7 8-- 7---- 9--11---- 9----| 7------ 7-- 7-- 3-- 9--11--12--|
D|------ 7------------ 9------ 8--|---- 8-- 7-- 6-- 5-- 8----------|
A|-- 9-- 8---- 7-- 6--------------|------------------------11--12--|
E|--------------------10-- 9-- 8--| 7------------------------------|
http://classicalguitartablature.blogspot.com/
E| 9------------ 7-------------- 5|---- 5---------- 5------ 3-- 3--|
B|10----10------ 8---- 7 8--------| 5-- 6-- 3-- 3-- 3------ 3-- 5--|
G|11--10 9---- 8 8---- 5 7---- 7--| 5-- 6-- 5-- 3-- 3------ 3-- 4--|
D|---- 9 8---- 7------ 7 6---- 6--|-------- 4-- 2------------------|
A|-------------- 8---- 6 7--------|---- 6------------ 5 4-- 3-- 4--|
E|10-- 9-- 8-- 7-------------- 6--| 5------ 4-- 2-- 3--------------|
http://classicalguitartablature.blogspot.com/
E| 2-- 3-- 5----------------------|--------------------------------|
B| 2-- 3-- 5---- 3-------- 3 3 3--| 3-- 3-- 3-- 3-- 5------ 5------|
G| 2-- 4-- 4-- 3-- 2------ 4 3 2--| 0-- 2-- 2-- 4-- 6------ 2------|
D|------------ 3-- 0------ 4 2 1--| 0-- 2-- 2-- 4-- 5------ 2------|
A|-------- 4-- 3-- 2 1 0----------|------------------------ 3-- 4--|
E| 2-- 3------------------ 4 3 1--| 0-- 2-- 3-- 4-- 5-- 7----------|
http://classicalguitartablature.blogspot.com/
E|--------------------------------|---- 7--------------------------|
B| 3-- 3---- 3-- 3---- 3---- 3----|---- 8--10-- 8---- 7------ 5----|
G| 2-- 2---- 3-- 2---- 2---- 2----|---- 7-- 9-- 7---- 6------ 2----|
D| 4-- 4---- 2-- 1---- 1---- 1----|-------- 7-- 5---- 5------ 2----|
A| 5------ 3-- 3 2----------------|--------------------------------|
E|------------------------ 1-- 1--| 0------ 9-- 7-- 5-- 5-- 3-- 3--|
http://classicalguitartablature.blogspot.com/
E| 2-- 2--------------------------|---- 3-- 2----------------------|
B| 1-- 1---- 5---- 3-- 3---- 2----|---- 3-- 2-- 5-- 3-- 3---- 2----|
G| 2-- 2---- 5---- 3-- 3---- 2----|---- 3-- 2-- 4-- 4-- 4---- 2----|
D|---------- 4---- 2-- 2---- 1----|---- 2------ 5-- 4-- 4---- 5----|
A|---------------- 3------ 2------|--------------------------------|
E| 2------ 5-- 5-------------- 1 0|-------- 2-- 3-- 4------ 5-- 5--|
http://classicalguitartablature.blogspot.com/
E|------------ 0------------------|--------------------------------|
B| 3------------------------------|--------------------------------|
G|-------- 4----------------------|--------------------------------|
D|---- 4--------------------------|--------------------------------|
A| 5------------------------------|--------------------------------|
E|--------------------------------|--------------------------------|
http://classicalguitartablature.blogspot.com/

0 ความคิดเห็น:

แสดงความคิดเห็น