To celebrate the anniversary, I am giving you (finally...) : iPhone LickByNeck !!!!!!

Only You

The Platters' hit fingerstyle solo guitar arrangement played in the key of G.


http://classicalguitartablature.blogspot.com/
Only You played in the key of G.
Classical Guitar Tablature http://classicalguitartablature.blogspot.com/
E|--------------------------------|--------------------------------|
B| 3 3---- 3 3 3 3-- 3 3-- 2 2 2--| 3---------------------- 3------|
G| 4 4 4-- 4 4 4 4-- 4 4-- 3 3 3--| 4-------------- 6------ 5------|
D| 5 5 5-- 5 5 5-- 5 5 5-- 4 4 4--| 5-------------- 5------ 4------|
A|--------------------------------|---------------- 6------ 5------|
E| 3 3 3-- 3 3 3-- 3 3 3-- 2 2 2--| 3------------------------------|
Classical Guitar Tablature http://classicalguitartablature.blogspot.com/
E| 7------------------------------|---------------------- 7--------|
B| 8-- 8-- 8 8 8------------------| 8------ 3------ 8----10--------|
G| 7 7 7-- 7 7 7-- 7-- 7-- 7-- 7--| 7-- 7-- 4-- 4------ 9-- 9-- 9--|
D|-- 9 9-- 9 9 9---- 5------ 9----|-- 9------ 5------ 9------ 7----|
A|10------------------------------|10------ 5----------------------|
E|---------------- 7------10------|---------------- 9------ 8------|
Classical Guitar Tablature http://classicalguitartablature.blogspot.com/
E|--------------------------------|-------------- 7-------------- 3|
B|10----10-- 7--------------------|-------------- 7------10--------|
G| 8-- 8---- 4-- 8---- 8-------- 8|---- 8 4---- 4------ 8 8---- 8--|
D|-- 7------ 4------ 7-- 7--------| 7------ 4-------- 7------10----|
A|------------ 6 9------------ 9--|------ 6------ 9-------- 8------|
E| 7----------------------11---- 7|--------------------------------|
Classical Guitar Tablature http://classicalguitartablature.blogspot.com/
E|---- 3--------------------------|--------------------------------|
B| 0-- 0--------------------------|-------------- 5------ 8------ 6|
G| 0-- 0---- 2---- 4-- 4---- 5----| 7-- 7-- 4-- 4-- 7-- 7 9---- 9 7|
D|---------- 1---- 2-- 2---- 4----| 5-- 5---- 5---- 5 5------ 9----|
A|--------------------------------|-------- 5------ 7------10---- 8|
E| 0------ 2-- 2-- 3------ 5-- 5--| 7------------------------------|
Classical Guitar Tablature http://classicalguitartablature.blogspot.com/
E|--------------------------------|--------------------------------|
B|------ 3-------- 0--------------|---------------------- 3--------|
G|---- 7 5---- 5-- 2-- 2---- 7----|---- 4---- 0-- 5---- 5 4---- 4--|
D|-- 9------ 3---- 3-- 3---- 5----|---- 3------ 0---- 3------ 3----|
A|------ 5-------- 3--------------|-------------- 5-------- 4------|
E|------------------------ 7-- 7--| 3------ 1----------------------|
Classical Guitar Tablature http://classicalguitartablature.blogspot.com/
E|------------------------ 3------| 2---------------------------- 7|
B| 5-- 5---- 1---- 5-- 5-- 5-- 5--| 3-- 3-------------- 510------ 8|
G| 4-- 4---- 0---- 4-- 4-- 5 5----| 2-- 2------ 5------ 5 7---- 7--|
D| 5-- 5---- 0---- 5 5------------|---------- 5-------- 5---- 7----|
A| 3------ 2-- 2------------------|-------- 7------ 5--------------|
E|---------------- 5------ 3------| 2---------------------- 8---- 7|
Classical Guitar Tablature http://classicalguitartablature.blogspot.com/
E|------ 7-------------- 7--------|---------------------------- 3--|
B|---- 8 3---- 310------ 8---- 8 8|------------------------ 0-- 0--|
G|-- 7------ 4-- 9---- 9---- 8-- 7|---- 7---- 5------ 4---- 0-- 0--|
D|------------------10------------|-- 5-------- 7------ 5---- 0----|
A|---------------- 9---- 8--------| 7------ 6---- 5-------- 2-- 3--|
E|-------- 3----------------------|--------------------------------|
Classical Guitar Tablature http://classicalguitartablature.blogspot.com/
E|--------------------------------|---------------- 0------ 7---- 5|
B|10--10---- 8---- 8------ 5------| 5------ 5------ 3------10------|
G| 9-- 9---- 9---- 7-- 7-- 7-- 7--| 6-- 6-- 2-- 2------ 2------ 9--|
D| 7-- 7---- 7------ 5------ 5----|-- 5---- 2 2------ 0------ 7----|
A|--------------------------------|------------------------ 8------|
E| 9------ 8-- 8-- 7------ 6------| 5------ 3------ 2--------------|
Classical Guitar Tablature http://classicalguitartablature.blogspot.com/
E|--------------------------------|------------ 7--10-- 7---- 5-- 7|
B| 8------------------------------|------------ 7-- 8-- 5---- 6--10|
G|---- 5---- 5-- 5---- 5 4---- 4 8|------------ 7-- 7-- 5---- 5-- 7|
D|-- 5-------- 5---- 5------ 5-- 7|--------------------------------|
A| 7------ 6---- 5------ 4--------|------------------------------10|
E|------------------------------ 8|------------ 7-- 6---- 5-- 4----|
Classical Guitar Tablature http://classicalguitartablature.blogspot.com/
E|--------------------------------|---------------------- 7--------|
B|--10 8------ 8------------------| 8------ 3------ 8----10--------|
G|-- 7 7---- 7-- 7---- 7-- 7-- 7--| 7-- 7-- 4-- 4------ 9-- 9-- 9--|
D|-- 9 9-- 9-------- 5------ 9----|-- 9------ 5------ 9------ 7----|
A|--------------------------------|10------ 5----------------------|
E|-------------- 7--------10------|---------------- 9------ 8------|
Classical Guitar Tablature http://classicalguitartablature.blogspot.com/
E|--------------------------------|-------------- 7-------------- 3|
B|10----10-- 7--------------------|-------------- 7------10--------|
G| 8-- 8---- 4-- 8---- 8-------- 8|---- 8 4---- 4------ 8 8---- 8--|
D|-- 7------ 4------ 7-- 7--------| 7------ 4-------- 7------10----|
A|------------ 6 9------------ 9--|------ 6------ 9-------- 8------|
E| 7----------------------11---- 7|--------------------------------|
Classical Guitar Tablature http://classicalguitartablature.blogspot.com/
E|---- 3--------------------------|--------------------------------|
B| 0-- 0--------------------------|-------------- 5------ 8------ 6|
G| 0-- 0---- 2---- 4-- 4---- 5----| 7-- 7-- 4-- 4-- 7-- 7 9---- 9 7|
D|---------- 1---- 2-- 2---- 4----| 5-- 5---- 5---- 5 5------ 9----|
A|--------------------------------|-------- 5------ 7------10---- 8|
E| 0------ 2-- 2-- 3------ 5-- 5--| 7------------------------------|
Classical Guitar Tablature http://classicalguitartablature.blogspot.com/
E|--------------------------------|--------------------------------|
B|------ 3-------- 0--------------|---------------------- 3--------|
G|---- 7 5---- 5-- 2-- 2---- 7----|---- 4---- 0-- 5---- 5 4---- 4--|
D|-- 9------ 3---- 3-- 3---- 5----|---- 3------ 0---- 3------ 3----|
A|------ 5-------- 3--------------|-------------- 5-------- 4------|
E|------------------------ 7-- 7--| 3------ 1----------------------|
Classical Guitar Tablature http://classicalguitartablature.blogspot.com/
E|------------------------ 3------|--------------------------------|
B| 5-- 5---- 1---- 5-- 5-- 5-- 512|----10-- 8------------ 5------ 3|
G| 4-- 4---- 0---- 4-- 4-- 5 5----| 9-- 9-- 8-- 8---- 7-- 6---- 6 4|
D| 5-- 5---- 0---- 5 5------------|--10------ 7-------- 5---- 5----|
A| 3------ 2-- 2------------------| 9------ 8------ 7------ 6------|
E|---------------- 5------ 3------|--------------------------------|
Classical Guitar Tablature http://classicalguitartablature.blogspot.com/
E|---------------- 3---------- 5--| 7------------------------------|
B|------------ 5-- 4-- 4------ 4--| 6-- 6---------- 4---------- 5--|
G|---- 4------ 4---- 2------ 2----|-- 7-------- 7-- 5-- 5------ 5--|
D|-- 5------ 5--------------------|---------- 6------ 5------ 4----|
A| 5---- 4-------- 3------ 2------| 7------------------------------|
E|--------------------------------|-------- 6------ 5------ 4------|
Classical Guitar Tablature http://classicalguitartablature.blogspot.com/
E| 5------ 7----------------------|---------------------- 7--------|
B| 5------10------ 5---------- 5--| 7---------- 5 7------10------ 8|
G|---- 5------ 7-- 5-- 5------ 5--| 5-- 5------ 4 4---- 4------ 7 7|
D|-- 5------ 7------ 7------ 5----|-- 7------ 5------ 5------ 7----|
A|-------- 9------ 8------ 7------| 6---- 5------ 4----------------|
E| 3------------------------------|------------------------ 8---- 7|
Classical Guitar Tablature http://classicalguitartablature.blogspot.com/
E|--------------------------------|--------------------------------|
B|------------------------------ 7|------------ 5 7------------ 5--|
G|---- 7-- 7-- 7-- 9-- 9------10 7|---- 7 6---- 6 5---- 5------ 5--|
D|-- 7------ 7------ 9------ 9----|-- 5------ 5------ 7------ 4----|
A|--------------------------------|--------------------------------|
E|--------10------ 9------ 8---- 7|------ 6------ 5------ 4------ 3|
Classical Guitar Tablature http://classicalguitartablature.blogspot.com/
E|--------------------------------|--------------------------------|
B| 3------------------------------|--------------------------------|
G| 4------------------------------|--------------------------------|
D| 2------------------------------|--------------------------------|
A|--------------------------------|--------------------------------|
E|--------------------------------|--------------------------------|

0 ความคิดเห็น:

แสดงความคิดเห็น