To celebrate the anniversary, I am giving you (finally...) : iPhone LickByNeck !!!!!!

Qi Li Xiang

Popular Chinese hit by Jay Chow fingerstyle solo guitar arrangement played in the key of Em.

You need to install the Flash plugin - http://www.webestools.com/

Qi Li Xiang played in the key of Em.
Classical Guitar Tablature http://classicalguitartablature.blogspot.com/
E|---------------------------- 0 3|-------- 3---- 7 5-- 3---- 0 3--|
B|------------------------ 0-- 3 0|-------- 0------ 5-- 5-- 5---- 3|
G|---------------------- 2------ 0|---- 0---------- 4-- 4-- 4------|
D|--------------------------------|--------------------------------|
A|--------------------------------|---------------- 3------------ 5|
E|--------------------------------| 0---------- 0------------------|
Classical Guitar Tablature http://classicalguitartablature.blogspot.com/
E|------ 3-- 5-- 7------ 7------ 0| 3------ 3---- 7 5-- 3------ 3 5|
B|---- 5-------- 7---- 7---- 0 3--| 0---- 0---- 0-- 5-- 5---- 5-- 3|
G|-- 0---------- 7-- 7---- 2------| 0-- 0---- 0---- 4-- 4-- 4---- 0|
D| 4-------- 4-- 4----------------|--------------------------------|
A|--------------------------------|---------------- 3------ 3---- 5|
E|---------------- 3--------------| 0------------------------------|
Classical Guitar Tablature http://classicalguitartablature.blogspot.com/
E|--------------------------------|--------------------------------|
B|-------- 3------ 3--------------| 8------ 7-- 8-------------- 8--|
G|---- 0------ 0-------------- 7--| 7-- 7-- 7---- 7---- 7------ 7 5|
D|-- 4------ 4--------------------|---- 9-------- 7-- 7-------- 5 7|
A|--------------------------------| 7------------------------------|
E|--------------------------------|--------10------ 8------ 7---- 5|
Classical Guitar Tablature http://classicalguitartablature.blogspot.com/
E|--------------------------------|--------------------------------|
B| 8-- 7-- 5 7-- 5-- 3------ 3-- 3|------------ 0-- 3-------- 3-- 3|
G|-------- 5---- 4-- 4------ 2-- 0|---- 0-- 5------ 0-- 0---- 0-- 5|
D|------ 4------ 5-- 5------ 2----|-- 0---- 5---------- 2---- 0-- 5|
A|--------------------------------|-------- 5------ 3---- 2--------|
E|------ 4-------- 3------ 2------| 0------------------------------|
Classical Guitar Tablature http://classicalguitartablature.blogspot.com/
E|--------------------------------|--------------------------------|
B|-- 5------ 1 1---- 0------ 3----| 8------ 7 8 8------------ 8-- 8|
G|-- 4-- 2-- 2 2---- 0------ 2----| 7-- 7 7---- 7------------ 7-- 5|
D|-- 3-- 2-- 1 1---- 0------ 0----|---- 9 7---- 7------ 7---- 5-- 7|
A|--------------------------------| 7------------------------------|
E| 5-- 4 3---- 2 3-------- 2------|------10-------- 8------ 7------|
Classical Guitar Tablature http://classicalguitartablature.blogspot.com/
E|------ 3-- 5 5---- 3-- 3-- 3----|---------------------------- 0--|
B|-- 7-- 5-- 3 3---- 3-- 3-- 3-- 8|-- 8-- 8-- 7 7------------ 7 3--|
G|-- 5-- 5---- 2---- 4-- 2-- 2-- 7|-- 7-- 7---- 9---- 9-- 9---- 2--|
D|-- 4-------------------------- 9|-- 9-- 9---- 7---- 7-- 7--------|
A|------------------------------ 7|------------------------------ 0|
E| 5-- 4 3-- 2-- 3------ 2--------|--------10------ 8------ 7------|
Classical Guitar Tablature http://classicalguitartablature.blogspot.com/
E|-------------------------- 3-- 3|---------- 0 0------------ 5-- 5|
B|-- 3-------- 3-------- 3------ 0|-------- 0---- 1---- 3 3------ 3|
G|-- 2------ 2-------- 2 2------ 0|---- 0------------ 0---------- 2|
D|-- 4---- 4-------- 2-- 1--------|-- 0------------ 2--------------|
A|--------------------------------|-------------- 3-------------- 5|
E|------ 3------ 2------ 1--------| 0------------------------------|
Classical Guitar Tablature http://classicalguitartablature.blogspot.com/
E|--------------------------------|--------------------------------|
B|---- 3------ 1 1---- 0------ 3--| 3-- 1-- 1-- 0-- 0--------------|
G|------ 2 2-- 0 0---- 0------ 2--| 0-- 0-- 0-- 0-- 0-- 2-- 2-- 0--|
D|------------ 2 2---- 0------ 0--| 0-- 0-- 0-- 0 2---- 2-- 2-- 2 4|
A|--------------------------------|-------------- 3-------------- 5|
E|---------------- 3------ 2------| 0------------------------------|
Classical Guitar Tablature http://classicalguitartablature.blogspot.com/
E|---------------------------- 3--| 3-------- 0-------------- 5-- 5|
B|-------------- 1---- 0 3---- 3--| 0---- 0-- 0-- 5------ 3-- 3-- 5|
G| 2-- 2-- 2 5-- 0---- 0 2---- 2--| 0-- 0 2-- 2-- 5------ 5------ 5|
D|---- 4-------- 2---- 0 2--------|-- 0-- 2---------- 5-- 3--------|
A|--------------------------------|--------------------------------|
E|---------------- 3------ 2------| 0------ 2------ 3---- 4--------|
Classical Guitar Tablature http://classicalguitartablature.blogspot.com/
E|-------------------------- 7-- 7|-- 5-- 5-- 3-------------- 7 7--|
B|---------- 1-- 1-- 0-- 3-- 8-- 8|-- 7-- 5-- 5-- 8--10-- 8-- 5 6--|
G|------ 2-- 2-- 2-- 0-- 2-- 8-- 7|-- 5-- 4-- 4-- 7-- 7-- 7-- 5 4--|
D|------ 1-- 1-- 1-- 0-- 2--------|-------------- 7-- 7-- 6--------|
A|-------------------------- 8-- 7|-- 6-- 5-- 4--------------------|
E| 5-- 3-- 2 1---- 2 3-- 2--------|---------------- 8-- 7 6-- 5----|
Classical Guitar Tablature http://classicalguitartablature.blogspot.com/
E|---- 5------------------ 3-- 3--|--------------------------------|
B|---- 5------------ 3-- 3------ 8|---------- 8---- 8-- 7-- 5---- 7|
G|---- 5---- 5------ 2-- 2------ 7|---------- 7-- 7-------- 7 7-- 7|
D|-- 6-------------- 2---------- 9|---- 9---- 9-- 7------ 5------ 7|
A|--------------------------------| 7------------------------------|
E| 4------ 3---- 2------ 1--------|------10------ 8------ 7------ 5|
Classical Guitar Tablature http://classicalguitartablature.blogspot.com/
E|-- 3-- 5-- 3-- 3-------- 3 3----|------------------------------ 5|
B|-- 5-- 3-- 3-- 3-- 3-- 3-- 3----| 8-------- 8-- 8-- 7-- 5------ 7|
G|-- 5-- 2---- 2 2-- 2-- 3-- 2----| 7-- 7---- 7-- 7------ 7-- 7-- 7|
D|------------------ 2---------- 9|-- 9------ 9-- 7------ 5--------|
A|------------------------------ 7|--------------------------------|
E|-- 3-- 1---- 2-- 3---- 2---- 1--|------10------ 8------ 7------ 5|
Classical Guitar Tablature http://classicalguitartablature.blogspot.com/
E|-- 3-- 5-- 8--------------------|------------------------------ 5|
B|-- 5-- 3-- 812-------- 8---- 8--| 8-------- 8-- 8-- 7-- 5------ 7|
G|-- 5-- 2-- 8 9---- 7-- 9---- 8--| 7-- 7---- 7-- 7------ 7-- 7-- 7|
D|------------10---- 9------ 8 7 9|-- 9------ 9-- 7------ 5--------|
A|---------- 8-- 9--10-- 9---- 8 7|--------------------------------|
E|-- 3-- 2------------------------|------10------ 8------ 7------ 5|
Classical Guitar Tablature http://classicalguitartablature.blogspot.com/
E|-- 3-- 2-- 3--------------------|---- 7------------------ 5-- 3 3|
B|-- 5-- 1-- 3 8-------------- 8 8|---- 8--10-- 8-- 8-- 7-- 5-- 3 3|
G|-- 5-- 2-- 2 7------ 7------ 5 8|---- 9-- 9-- 7-- 7-- 7-- 5-- 2 2|
D|------------ 5---- 5------ 7--10|-------- 7-- 7---- 5 7----------|
A|---------------- 7---- 6--------|--------------------------------|
E|-- 3-- 2-- 1--------------------|10-- 9-- 8-- 7-- 6-- 5-- 3-- 2--|
Classical Guitar Tablature http://classicalguitartablature.blogspot.com/
E|------------------------ 3 3----|--------------------------------|
B|-------- 3-------- 3-- 3------ 8|---------- 8-- 8-- 7-- 5-- 3-- 7|
G|---- 2---- 2------ 2-- 2------ 7|-- 5-- 9-- 9-- 7-- 7-- 7-- 5-- 5|
D|-- 2-------- 2---- 2---------- 5|-- 7---- 9 9-- 7-- 7-- 5-- 5-- 4|
A|--------------------------------| 7 6----------------------------|
E| 3-------------- 2---- 1--------|--------10 9-- 8-- 7---- 6-- 5 4|
Classical Guitar Tablature http://classicalguitartablature.blogspot.com/
E|-- 3-- 5-- 3 3-------- 3-- 3----|---------------------------- 5--|
B|-- 5-- 4-- 3 3---- 3-- 3-- 3-- 8|---------- 8-- 8-- 7-- 5-- 3 5--|
G|-- 5-- 2-- 2 2---- 2-- 2-- 2-- 7|-- 5-- 9-- 9-- 7-- 7-- 7-- 5-- 5|
D|------------------ 2---------- 5|-- 7---- 9 9-- 7-- 7-- 5-- 5----|
A|--------------------------------| 7 6----------------------------|
E|---- 3 2-- 1-- 2-- 3-- 2-- 1----|--------10 9-- 8-- 7---- 6-- 5--|
Classical Guitar Tablature http://classicalguitartablature.blogspot.com/
E|-- 3 5---- 8 7------------------|--------------------------------|
B|-- 6-- 5-- 8 7-------- 8-- 8-- 8|---------- 8-- 8-- 7-- 5-- 3--10|
G|-- 5-- 5-- 7 7---- 7-- 9-- 5-- 7|-- 5-- 9-- 9-- 7-- 7-- 7-- 5-- 8|
D|------------------ 7-- 9-- 7-- 5|-- 7---- 9 9-- 7-- 7-- 5-- 5-- 7|
A|---------------------------- 6--| 7 6----------------------------|
E| 3 4-- 5-- 6---- 7-- 8 9--------|--------10 9-- 8-- 7---- 6-- 5--|
Classical Guitar Tablature http://classicalguitartablature.blogspot.com/
E|---------------- 7--------------|---- 7-- 5------ 3-- 2 5-- 3----|
B|---- 810----13-- 8-- 8------ 8--| 8-- 7-- 8-- 8-- 5-- 3 3-- 1-- 8|
G|---- 8 9----12-- 7-- 5-- 9-- 9--| 8-- 7-- 7-- 5-- 5-- 2 2-- 0-- 5|
D|---- 7 9--10-------- 7-- 9-- 9--| 7---------- 7------------------|
A|-------------- 7---- 6----------|------------------------------ 6|
E| 7-- 8-- 911----------10---- 9 8|---- 7-- 6-- 5-- 3-- 2 1---- 0--|
Classical Guitar Tablature http://classicalguitartablature.blogspot.com/
E|--------------------------------|---- 7--------------------------|
B|-------- 8------------------ 8--| 8--------10-- 8---- 8---- 7----|
G|---- 5---- 5------------ 5------| 9-------- 7-- 7---- 7----------|
D|-- 7---------- 7---- 7----------| 9-------- 7-- 7---- 5----------|
A|---------------- 5--------------|--------------------------------|
E|--------------------------------| 8-------- 7-------- 6----------|
Classical Guitar Tablature http://classicalguitartablature.blogspot.com/
E|---- 5--------------------------|---------- 3--------------------|
B|-- 5---------- 8----------------|-------------------- 6-------- 6|
G|--------------------------------|---------- 5---- 5-------- 5----|
D|-- 5----------------------------|-------------- 3------ 3--------|
A|--------------------------------|--------------------------------|
E| 5------------------------------|-------- 4----------------------|
Classical Guitar Tablature http://classicalguitartablature.blogspot.com/
E|--------------------------------|------------------------ 0------|
B|---------- 6--------------------|-------------- 0-- 3------------|
G|------ 5------------------------|------------ 2------ 2----------|
D|-- 3----------------------------|--------------------------------|
A|--------------------------------|--------------------------------|
E|--------------------------------|------------ 3---- 2------------|
Classical Guitar Tablature http://classicalguitartablature.blogspot.com/
E|-------- 3----------------------|--------------------------------|
B|-------- 3------ 3--------------|--------------------------------|
G|------ 2------ 2---- 2----------|--------------------------------|
D|---------- 1------------ 1------|--------------------------------|
A|--------------------------------|--------------------------------|
E|------ 1------------------------|--------------------------------|
Classical Guitar Tablature http://classicalguitartablature.blogspot.com/

0 ความคิดเห็น:

แสดงความคิดเห็น