To celebrate the anniversary, I am giving you (finally...) : iPhone LickByNeck !!!!!!

Rain Drops Keep Falling ON My Head

Classic hit fingerstyle solo guitar arrangement played in the key of D.

http://classicalguitartablature.blogspot.com/
Rain Drops Keep Falling On My Head played in the key of D.
Classical Guitar Tablature http://classicalguitartablature.blogspot.com/
E|--------------------------------|--------------------------------|
B|------------ 3---------- 3------|-------- 5-- 5---------- 5------|
G|-------- 4-------------- 4------|-------- 6-- 6---------- 6------|
D|------ 5------------ 5------ 5--|---- 7-------------- 7------ 7--|
A| 0------------------------------| 0------------------------------|
E|--------------------------------|--------------------------------|
Classical Guitar Tablature http://classicalguitartablature.blogspot.com/
E|------------ 3------------------|------------ 5---------- 5------|
B|-------- 3-- 3-------- 3--------|------ 5---- 5---------- 5------|
G|-------- 4------------ 4--------|------ 6------------------------|
D|---- 5-------------- 5------ 5--|---- 7-------------- 7----------|
A| 0---------------------------- 0|--------------------------------|
E|--------------------------------|--------------------------------|
Classical Guitar Tablature http://classicalguitartablature.blogspot.com/
E|--------------------------------|--------------------------------|
B| 7---- 7-- 7---- 8-- 7 5--------| 7-- 7--------------------------|
G| 7---- 7-- 7---- 7-- 7-- 7-- 7--| 6-- 6------ 2-- 7-- 7 6---- 6--|
D| 7---- 7-------- 5-- 5------ 5--| 7-- 7------ 2-- 5-- 5------ 5--|
A|--------------------------------|---------------- 7------ 6------|
E|10------ 9-- 9-- 7------ 6------| 5------ 2----------------------|
Classical Guitar Tablature http://classicalguitartablature.blogspot.com/
E| 5-------------- 7--------------| 2-- 2------------------------ 9|
B| 7------------1010--10-- 8-- 7--| 3-- 3-- 8------ 5------------ 7|
G| 5------------ 7 7-- 7-- 5-- 5--| 2-- 2-- 7------ 4------ 7---- 9|
D|---- 7-------- 7---- 9-- 5-- 4--|-------- 5---------- 5-- 5-- 5--|
A| 5------------------------------|---------------- 5------ 7------|
E|-------- 8------ 7------ 5-- 4--| 3------ 6----------------------|
Classical Guitar Tablature http://classicalguitartablature.blogspot.com/
E|---- 9-------- 7---- 5-------- 9|-------------- 7----------------|
B|---- 7---------- 4-- 4-- 7----10|----10-------- 4----------------|
G|---- 9------ 9-- 4-- 4 6---- 6 9|---- 9------ 9 4------------ 8 7|
D|------------ 7-------- 7--------|----11------11-- 4-- 4------ 7--|
A| 9---- 7-------- 6--------------|-------------- 6------ 8------ 7|
E|---------------------- 7--------| 9----12------------------------|
Classical Guitar Tablature http://classicalguitartablature.blogspot.com/
E| 5------ 5------ 3-- 5-- 3-- 2--|-------------------- 5----------|
B| 8------ 7-- 7-- 5-- 5-- 5-- 5--|10------10-- 7 8---- 8----------|
G|-------- 5-- 5-- 4------ 4------| 9---- 8---- 8 7---- 7------ 6--|
D|------------ 7------------------| 7------ 7-- 7 5------------ 5--|
A|-------- 6------ 5------ 4------|--------------------------------|
E|--------------------------------| 8------ 7---- 6------ 5--------|
Classical Guitar Tablature http://classicalguitartablature.blogspot.com/
E|------------------------ 0------|--------------------------------|
B|-------- 3---- 3---- 3-- 0---- 7|--------------------10------ 5--|
G|---- 4-- 3---- 2---- 2-- 0------| 7-- 7-------------- 9------ 7--|
D| 4-- 4-- 2---- 2---- 2----------| 7-- 7-------------- 8------ 5--|
A|--------------------------------|--------------------------------|
E| 4------ 3------ 2------ 0------|10------ 9------ 8------ 7------|
Classical Guitar Tablature http://classicalguitartablature.blogspot.com/
E|---------------------------- 2--| 3-- 3--------------------------|
B|---------------------------- 3--| 3-- 3---- 7-- 5------------ 7--|
G|---- 7-------------- 4------ 3--| 4-------- 7-- 4---- 7------ 7--|
D|---- 5------ 5------ 4----------|---------- 5-- 4---- 7------ 8--|
A|--------------------------------|---------------- 5------ 9----10|
E| 6------ 5------ 4------ 2------| 3------ 7-- 7------------------|
Classical Guitar Tablature http://classicalguitartablature.blogspot.com/
E|-------------------- 3----------|-------------- 5----------------|
B|------------ 7------ 2----12----|----10-------- 7---- 7--------12|
G|-- 9-------- 7------ 2------ 9--|---- 7---- 7-- 6---- 6---- 6--11|
D|-- 8-------- 5--------------11--|---- 9---- 9-------- 7---- 7----|
A|------------------------------ 9|------ 8------ 7------ 6--------|
E|------10------ 6------ 3--------|------------------------------10|
Classical Guitar Tablature http://classicalguitartablature.blogspot.com/
E|------------------------------ 9|--------------------------------|
B|------10------10------ 7------ 7|----12----------10------ 7------|
G|------ 9------ 9------ 6------ 7|---- 9------ 9--11------ 5------|
D|-- 9-------- 7------ 7------ 5--|---- 9------ 9-- 9-- 9-- 7-- 7--|
A|--------------------------------|------------------------ 6------|
E|------ 9------ 8-------- 6------| 7------ 9------10--------------|
Classical Guitar Tablature http://classicalguitartablature.blogspot.com/
E| 0------------------------------|--------------------------------|
B| 0-- 3-------- 3---- 3-------- 3|--------------------------------|
G| 0-- 2-------- 4---- 4------ 4 4|---- 4-- 7-- 7 9---- 9 9---- 9--|
D|---- 2-------- 4---- 4------ 4 5|---- 5-- 5-- 5 7---- 7 7---- 7--|
A|--------------------------------|--------------------------------|
E| 0------ 2------ 3---- 4------ 5|-------- 7------ 8-- 8-- 9------|
Classical Guitar Tablature http://classicalguitartablature.blogspot.com/
E|--------------------------------|--------------------------------|
B| 7---- 7-- 7---- 8-- 7 5--------| 7-- 7--------------------------|
G| 7---- 7-- 7---- 7-- 7-- 7-- 7--| 6-- 6------ 2-- 7-- 7 6---- 6--|
D| 7---- 7-------- 5-- 5------ 5--| 7-- 7------ 2-- 5-- 5------ 5--|
A|--------------------------------|---------------- 7------ 6------|
E|10------ 9-- 9-- 7------ 6------| 5------ 2----------------------|
Classical Guitar Tablature http://classicalguitartablature.blogspot.com/
E| 5-------------- 7--------------| 2-- 2------------------------ 9|
B| 7------------1010--10-- 8-- 7--| 3-- 3-- 8------ 5------------ 7|
G| 5------------ 7 7-- 7-- 5-- 5--| 2-- 2-- 7------ 4------ 7---- 9|
D|---- 7-------- 7---- 9-- 5-- 4--|-------- 5---------- 5-- 5-- 5--|
A| 5------------------------------|---------------- 5------ 7------|
E|-------- 8------ 7------ 5-- 4--| 3------ 6----------------------|
Classical Guitar Tablature http://classicalguitartablature.blogspot.com/
E|---- 9-------- 7---- 5-------- 9|-------------- 7----------------|
B|---- 7---------- 4-- 4-- 7----10|----10-------- 4----------------|
G|---- 9------ 9-- 4-- 4 6---- 6 9|---- 9------ 9 4------------ 8 7|
D|------------ 7-------- 7--------|----11------11-- 4-- 4------ 7--|
A| 9---- 7-------- 6--------------|-------------- 6------ 8------ 7|
E|---------------------- 7--------| 9----12------------------------|
Classical Guitar Tablature http://classicalguitartablature.blogspot.com/
E| 5------ 5------ 3-- 5-- 3-- 2--|-------------------- 5----------|
B| 8------ 7-- 7-- 5-- 5-- 5-- 5--|10------10-- 7 8---- 8----------|
G|-------- 5-- 5-- 4------ 4------| 9---- 8---- 8 7---- 7------ 6--|
D|------------ 7------------------| 7------ 7-- 7 5------------ 5--|
A|-------- 6------ 5------ 4------|--------------------------------|
E|--------------------------------| 8------ 7---- 6------ 5--------|
Classical Guitar Tablature http://classicalguitartablature.blogspot.com/
E|------------------------ 0------|--------------------------------|
B|-------- 3---- 3---- 3-- 0------| 3------------------------------|
G|---- 4-- 3---- 2---- 2-- 0------| 4------------------------------|
D| 4-- 4-- 2---- 2---- 2----------| 4------------------------------|
A|--------------------------------| 5------------------------------|
E| 4------ 3------ 2------ 0------|--------------------------------|
Classical Guitar Tablature http://classicalguitartablature.blogspot.com/

0 ความคิดเห็น:

แสดงความคิดเห็น