To celebrate the anniversary, I am giving you (finally...) : iPhone LickByNeck !!!!!!

Romance De Amor (EASY)

Popular beginner classical solo guitar piece chord melody guitar arrangement played in the key of Em.
http://classicalguitartablature.blogspot.com/

http://classicalguitartablature.blogspot.com/
Romance de amor played in the key of Em.
http://classicalguitartablature.blogspot.com/
E| 2------ 2------ 2------| 2------ 3------ 2---- 0|
B|-- 0------ 0------ 0----|-- 0------ 0------ 0----|
G|---- 2------ 2------ 2--|---- 2------ 2------ 2--|
D|------------------------|---------------------- 2|
A| 2----------------------| 2----------------------|
E|------------------------|------------------------|
http://classicalguitartablature.blogspot.com/
E|------------------------|---------------------- 7|
B|-- 0------ 0------------|------------------------|
G|---- 0------ 0---- 0----|------------------------|
D|-------------------- 2--|------------------------|
A|------ 2----------------|------------------------|
E|---------------- 3------| 0----------------------|
http://classicalguitartablature.blogspot.com/
E|-------- 7------ 7---- 7|------ 5------ 3------ 3|
B|-- 0------ 0------ 0----|-- 0------ 0------ 0----|
G|---- 0------ 0------ 0--|---- 0------ 0------ 0--|
D|------------------------|------------------------|
A|------------------------|------------------------|
E| 0----------------------| 0-------------------- 0|
http://classicalguitartablature.blogspot.com/
E|------ 2------ 0------ 0|------ 3------ 7------12|
B|-- 0---- 0------ 0------|-- 0---- 0-------- 0----|
G|---- 0------ 0------ 0--|---- 0------ 0------ 0--|
D|------------------------|------------------------|
A|------------------------|------------------------|
E|---------------------- 0|---------------------- 0|
http://classicalguitartablature.blogspot.com/
E|--------12----12------12|------10------ 8------ 8|
B|-- 0------ 0------ 0----|-- 0------ 0---- 0------|
G|---- 0------ 0------ 0--|---- 0------ 0------ 0--|
D|------------------------|------------------------|
A|------------------------|---------------------- 0|
E|------------------------| 0----------------------|
http://classicalguitartablature.blogspot.com/
E|------ 7------ 5------ 5|------ 7------ 8------ 7|
B|-- 5------ 5---- 5------|-- 5------ 5------ 5----|
G|---- 5------ 5------ 5--|---- 5------ 5------ 5--|
D|------------------------|------------------------|
A|---------------------- 0|------------------------|
E|------------------------|------------------------|
http://classicalguitartablature.blogspot.com/
E|------ 8------ 7--------|11------ 8---- 7------ 7|
B|-- 7------ 7------ 7----|-- 7------ 7------ 7----|
G|---- 8------ 8------ 8--|---- 8------ 8------ 8--|
D|------------------------|------------------------|
A|------------------------|------------------------|
E| 7----------------------| 7-------------------- 0|
http://classicalguitartablature.blogspot.com/
E|------ 5------ 3------ 3|------ 2------ 0--------|
B|-- 0------ 0---- 0------|-- 0------ 0------ 0----|
G|---- 0------ 0------ 0--|---- 0------ 0------ 0--|
D|------------------------|------------------------|
A|------------------------|------------------------|
E|---------------------- 0|------------------------|
http://classicalguitartablature.blogspot.com/
E| 2------ 2------ 2------| 2------ 3------ 2---- 0|
B|-- 0------ 0------ 0----|-- 0------ 0------ 0----|
G|---- 2------ 2------ 2--|---- 2------ 2------ 2--|
D|------------------------|---------------------- 2|
A| 2----------------------| 2----------------------|
E|------------------------|------------------------|
http://classicalguitartablature.blogspot.com/
E|------------------------|---------------------- 7|
B|-- 0------ 0------------|------------------------|
G|---- 0------ 0---- 0----|------------------------|
D|-------------------- 2--|------------------------|
A|------ 2----------------|------------------------|
E|---------------- 3------| 0----------------------|
http://classicalguitartablature.blogspot.com/
E|-------- 7------ 7---- 7|------ 5------ 3------ 3|
B|-- 0------ 0------ 0----|-- 0------ 0------ 0----|
G|---- 0------ 0------ 0--|---- 0------ 0------ 0--|
D|------------------------|------------------------|
A|------------------------|------------------------|
E| 0----------------------| 0-------------------- 0|
http://classicalguitartablature.blogspot.com/
E|------ 2------ 0------ 0|------ 3------ 7------12|
B|-- 0---- 0------ 0------|-- 0---- 0-------- 0----|
G|---- 0------ 0------ 0--|---- 0------ 0------ 0--|
D|------------------------|------------------------|
A|------------------------|------------------------|
E|---------------------- 0|---------------------- 0|
http://classicalguitartablature.blogspot.com/
E|--------12----12------12|------10------ 8------ 8|
B|-- 0------ 0------ 0----|-- 0------ 0---- 0------|
G|---- 0------ 0------ 0--|---- 0------ 0------ 0--|
D|------------------------|------------------------|
A|------------------------|---------------------- 0|
E|------------------------| 0----------------------|
http://classicalguitartablature.blogspot.com/
E|------ 7------ 5------ 5|------ 7------ 8------ 7|
B|-- 5------ 5---- 5------|-- 5------ 5------ 5----|
G|---- 5------ 5------ 5--|---- 5------ 5------ 5--|
D|------------------------|------------------------|
A|---------------------- 0|------------------------|
E|------------------------|------------------------|
http://classicalguitartablature.blogspot.com/
E|------ 8------ 7--------|11------ 8---- 7------ 7|
B|-- 7------ 7------ 7----|-- 7------ 7------ 7----|
G|---- 8------ 8------ 8--|---- 8------ 8------ 8--|
D|------------------------|------------------------|
A|------------------------|------------------------|
E| 7----------------------| 7-------------------- 0|
http://classicalguitartablature.blogspot.com/
E|------ 5------ 3------ 3|------ 2------ 0--------|
B|-- 0------ 0---- 0------|-- 0------ 0------ 0----|
G|---- 0------ 0------ 0--|---- 0------ 0------ 0--|
D|------------------------|------------------------|
A|------------------------|------------------------|
E|---------------------- 0|------------------------|
http://classicalguitartablature.blogspot.com/
E| 2------ 2------ 2------| 2------ 3------ 2---- 0|
B|-- 0------ 0------ 0----|-- 0------ 0------ 0----|
G|---- 2------ 2------ 2--|---- 2------ 2------ 2--|
D|------------------------|---------------------- 2|
A| 2----------------------| 2----------------------|
E|------------------------|------------------------|
http://classicalguitartablature.blogspot.com/
E|------------------------|---------------------- 4|
B|-- 0------ 0------------|------------------------|
G|---- 0------ 0---- 0----|------------------------|
D|-------------------- 2--|------------------------|
A|------ 2----------------|------------------------|
E|---------------- 3------| 0-------------------- 0|
http://classicalguitartablature.blogspot.com/
E|------ 4------ 4------ 4|------ 2------ 0--------|
B|-- 0------ 0---- 0------|-- 0------ 0---- 0------|
G|---- 1------ 1------ 1--|---- 1------ 1------ 1--|
D|------------------------|------------------------|
A|------------------------|------------------------|
E|------------------------| 0----------------------|
http://classicalguitartablature.blogspot.com/
E|------------------------|---------------------- 9|
B| 5------ 4------ 4------| 4------ 3---- 4--------|
G|-- 2------ 2------ 2----|-- 2------ 2------ 2----|
D|---- 4------ 4------ 4--|---- 4------ 4------ 4--|
A| 2----------------------| 2----------------------|
E|------------------------|------------------------|
http://classicalguitartablature.blogspot.com/
E|------ 9------ 9--------| 9------11------ 9---- 9|
B|-- 7------ 7------ 7----|-- 7------ 7------ 7----|
G|---- 8------ 8------ 8--|---- 8------ 8------ 8--|
D|------------------------|------------------------|
A|------------------------|------------------------|
E| 7----------------------| 7-------------------- 0|
http://classicalguitartablature.blogspot.com/
E|------ 7------ 7------ 7|------ 9------11------12|
B|-- 9------ 9------ 9----|-- 9------ 9------ 9----|
G|---- 9------ 9------ 9--|---- 9------ 9------ 9--|
D|------------------------|------------------------|
A|------------------------|------------------------|
E|---------------------- 0|---------------------- 0|
http://classicalguitartablature.blogspot.com/
E|------12------12------12|------11------10------ 9|
B|-- 9------ 9------ 9----|-- 9------ 9------ 9----|
G|---- 9------ 9------ 9--|---- 9------ 9------ 9--|
D|------------------------|------------------------|
A|------------------------|---------------------- 0|
E|------------------------| 0----------------------|
http://classicalguitartablature.blogspot.com/
E|------ 9------ 9--------| 9---- 7------ 5------ 4|
B|-- 5------ 5------ 5----|-- 5------ 5------ 5----|
G|---- 6------ 6------ 6--|---- 6------ 6------ 6--|
D|------------------------|------------------------|
A|------------------------| 0----------------------|
E|------------------------|------------------------|
http://classicalguitartablature.blogspot.com/
E|------ 4------ 4------ 4|------ 5------ 2--------|
B|-- 4------ 4------ 4----|-- 4------ 4------ 4----|
G|---- 2------ 2------ 2--|---- 2------ 2------ 2--|
D|------------------------|------------------------|
A| 2----------------------| 2----------------------|
E|------------------------|------------------------|
http://classicalguitartablature.blogspot.com/
E| 0----------------------|----------------------12|
B|-- 0--------------------|------------------------|
G|---- 1---- 1------ 1----|------------------------|
D| 2---------- 2------ 2--|------------------------|
A|------ 2----------------|------------------------|
E|-------------- 4--------| 0-------------------- 0|
http://classicalguitartablature.blogspot.com/
E|------12------12------12|------11------10------ 9|
B|-- 9------ 9------ 9----|-- 9------ 9------ 9----|
G|---- 9------ 9------ 9--|---- 9------ 9------ 9--|
D|------------------------|------------------------|
A|------------------------|---------------------- 0|
E|------------------------| 0----------------------|
http://classicalguitartablature.blogspot.com/
E|------ 9------ 9--------| 9---- 7------ 5------ 4|
B|-- 5------ 5------ 5----|-- 5------ 5------ 5----|
G|---- 6------ 6------ 6--|---- 6------ 6------ 6--|
D|------------------------|------------------------|
A|------------------------| 0----------------------|
E|------------------------|------------------------|
http://classicalguitartablature.blogspot.com/
E|------ 4------ 4------ 4|------ 5------ 2--------|
B|-- 4------ 4------ 4----|-- 4------ 4------ 4----|
G|---- 2------ 2------ 2--|---- 2------ 2------ 2--|
D|------------------------|------------------------|
A| 2----------------------| 2----------------------|
E|------------------------|------------------------|
http://classicalguitartablature.blogspot.com/
E| 0----------------------|------------------------|
B|-- 0--------------------|------------------------|
G|---- 1---- 1------ 1----|------------------------|
D| 2---------- 2------ 2--|------------------------|
A|------ 2----------------|------------------------|
E|-------------- 4--------| 0----------------------|
http://classicalguitartablature.blogspot.com/

0 ความคิดเห็น:

แสดงความคิดเห็น