To celebrate the anniversary, I am giving you (finally...) : iPhone LickByNeck !!!!!!

Romance De Amor (Jazzy)

Popular beginner classical solo guitar piece chord melody guitar jazz arrangement played in the key of Em.
http://classicalguitartablature.blogspot.com/

http://classicalguitartablature.blogspot.com/
Romance de amor played in the key of Em.
http://classicalguitartablature.blogspot.com/
E| 2------ 2--------------|------------------------|
B|-- 1------ 5---- 7------| 7------ 8---- 7--------|
G|------ 2---- 4---- 5----|-- 8------ 8------ 9----|
D|-------------------- 7--|---- 7------ 7------ 9--|
A|------------------------|---------------------- 5|
E| 2------ 3------ 5------| 7------ 8------ 9------|
http://classicalguitartablature.blogspot.com/
E|------------------------|---------------------- 7|
B| 5----------------------| 5----------------------|
G|-- 4-------- 4------ 8--| 6----------------------|
D|---- 5---- 4------ 7----| 5----------------------|
A|-------- 6---- 8--------| 7----------------------|
E|------------------------|------------------------|
http://classicalguitartablature.blogspot.com/
E|-------- 7------ 7------| 7------ 5--------------|
B|-- 0------ 8------ 7----|-- 5------ 5-- 8------ 8|
G|---- 0------ 8-------- 7|---- 4------ 5---- 7----|
D|------------------------|-------------------- 6--|
A|-------- 8------ 9------|------------------------|
E| 0----------------------| 3------ 5---- 6------ 7|
http://classicalguitartablature.blogspot.com/
E|------------------------|-------------- 7--------|
B|------ 7------ 5------ 5|------ 8---------- 8----|
G|-- 7------ 7------ 4----|-- 4------ 5-------- 8--|
D|---- 5------ 7------ 5--|---- 5------ 7----------|
A|-------------- 4--------| 5---- 6-------- 8------|
E|------ 8----------------|----------------------12|
http://classicalguitartablature.blogspot.com/
E|12------12------12----12|------10------ 8--------|
B|--12------15------10----|--12------12---- 8------|
G|----12------14------11--|----12------10-- 7 7----|
D|------------------------|-------------------- 6--|
A|---------------- 9------|10------11--------------|
E|--------13--------------|---------------- 6------|
http://classicalguitartablature.blogspot.com/
E| 8------ 7--------------|------------------------|
B|-- 5---- 9------10------|10------12------13------|
G|---- 5---- 7------ 9----|-- 9------11------12----|
D|------------ 9------ 7--|---- 8------10------10--|
A|------------------------|------------------------|
E| 5------ 7------ 8------| 9----10--------12------|
http://classicalguitartablature.blogspot.com/
E|------ 8-------- 7----11|-------- 8---- 7--------|
B|12------ 8-------- 7----|--10------10--10--------|
G|-- 9---- 8 8-------- 5--|----11------ 8 9-- 9----|
D|----10------ 7----------|-------------------- 7--|
A| 9------ 8---- 7--------|------------------------|
E|----------------------11|--------10------ 8------|
http://classicalguitartablature.blogspot.com/
E| 7----------------------|------------------------|
B| 8----10------ 8--------| 8------ 7---- 5--------|
G|---- 9---- 9------ 9----|-- 9------ 5------ 6----|
D|-- 9--------10------ 9--|---- 9------ 7------ 5--|
A|------------------------|-------- 6------ 7------|
E| 7------ 8---- 9------10|------------------------|
http://classicalguitartablature.blogspot.com/
E| 2------ 2--------------|------------------------|
B|-- 1------ 5---- 7------| 7------ 8---- 7--------|
G|------ 2---- 4---- 5----|-- 8------ 8------ 9----|
D|-------------------- 7--|---- 7------ 7------ 9--|
A|------------------------|---------------------- 5|
E| 2------ 3------ 5------| 7------ 8------ 9------|
http://classicalguitartablature.blogspot.com/
E|------------------------|---------------------- 7|
B| 5----------------------| 5----------------------|
G|-- 4-------- 4------ 8--| 6----------------------|
D|---- 5---- 4------ 7----| 5----------------------|
A|-------- 6---- 8--------| 7----------------------|
E|------------------------|------------------------|
http://classicalguitartablature.blogspot.com/
E|-------- 7------ 7------| 7------ 5--------------|
B|-- 0------ 8------ 7----|-- 5------ 5-- 8------ 8|
G|---- 0------ 8-------- 7|---- 4------ 5---- 7----|
D|------------------------|-------------------- 6--|
A|-------- 8------ 9------|------------------------|
E| 0----------------------| 3------ 5---- 6------ 7|
http://classicalguitartablature.blogspot.com/
E|------------------------|-------------- 7--------|
B|------ 7------ 5------ 5|------ 8---------- 8----|
G|-- 7------ 7------ 4----|-- 4------ 5-------- 8--|
D|---- 5------ 7------ 5--|---- 5------ 7----------|
A|-------------- 4--------| 5---- 6-------- 8------|
E|------ 8----------------|----------------------12|
http://classicalguitartablature.blogspot.com/
E|12------12------12----12|------10------ 8--------|
B|--12------15------10----|--12------12---- 8------|
G|----12------14------11--|----12------10-- 7 7----|
D|------------------------|-------------------- 6--|
A|---------------- 9------|10------11--------------|
E|--------13--------------|---------------- 6------|
http://classicalguitartablature.blogspot.com/
E| 8------ 7--------------|------------------------|
B|-- 5---- 9------10------|10------12------13------|
G|---- 5---- 7------ 9----|-- 9------11------12----|
D|------------ 9------ 7--|---- 8------10------10--|
A|------------------------|------------------------|
E| 5------ 7------ 8------| 9----10--------12------|
http://classicalguitartablature.blogspot.com/
E|------ 8-------- 7----11|-------- 8---- 7--------|
B|12------ 8-------- 7----|--10------10--10--------|
G|-- 9---- 8 8-------- 5--|----11------ 8 9-- 9----|
D|----10------ 7----------|-------------------- 7--|
A| 9------ 8---- 7--------|------------------------|
E|----------------------11|--------10------ 8------|
http://classicalguitartablature.blogspot.com/
E| 7----------------------|------------------------|
B| 8----10------ 8--------| 8------ 7---- 5--------|
G|---- 9---- 9------ 9----|-- 9------ 5------ 6----|
D|-- 9--------10------ 9--|---- 9------ 7------ 5--|
A|------------------------|-------- 6------ 7------|
E| 7------ 8---- 9------10|------------------------|
http://classicalguitartablature.blogspot.com/
E| 2------ 2--------------|------------------------|
B|-- 1------ 5---- 7------| 7------ 8---- 7--------|
G|------ 2---- 4---- 5----|-- 8------ 8------ 9----|
D|-------------------- 7--|---- 7------ 7------ 9--|
A|------------------------|---------------------- 5|
E| 2------ 3------ 5------| 7------ 8------ 9------|
http://classicalguitartablature.blogspot.com/
E|------------------------|------------------------|
B| 5----------------------| 5----------------------|
G|-- 4-------- 4------ 8--| 6----------------------|
D|---- 5---- 4------ 7----| 5----------------------|
A|-------- 6---- 8--------| 7----------------------|
E|------------------------|------------------------|
http://classicalguitartablature.blogspot.com/
E|------------------------|------------------------|
B| 9------ 9------ 9------| 9------ 7---- 5------ 5|
G|-- 8------ 8------ 9----|-- 9------ 9------ 6----|
D|---- 9------ 9------10--|---- 7------ 7------ 5--|
A| 7------ 6--------------|------------------------|
E|----------------10------| 9------ 8---- 6------ 7|
http://classicalguitartablature.blogspot.com/
E|------------------------|---------------------- 9|
B|------ 4------ 4------ 4|------ 3------ 4--------|
G|-- 6------ 6------ 5----|-- 4------ 3------ 2----|
D|---- 7------ 6------ 4--|---- 2------ 2------ 4--|
A|------------------------|---------------------- 8|
E|------ 6------ 5------ 4|-------- 3---- 2--------|
http://classicalguitartablature.blogspot.com/
E|------ 9------ 9------ 9|------11------ 9------ 9|
B|-- 9------ 7------10----|--12------10------10----|
G|---- 7------ 6------11--|----11------11------ 9--|
D|------------------------|------------------------|
A|------ 7----------------|------------------------|
E|--------------11------10|------ 9------ 7------ 6|

E|------ 7------ 7------ 7|------ 9--------11----12|
B|-- 9---- 7------ 7------|-- 5------10------10----|
G|---- 9------ 5------ 7--|---- 4------ 9------ 9--|
D|------------------------|------------------------|
A|------------------------|-------- 9------ 8------|
E|------ 5------ 4------ 3|------------------------|
http://classicalguitartablature.blogspot.com/
E|------12------12--------|12----11------10------ 9|
B|--12------12------12----|-- 9------10------ 9----|
G|----11------11------11--|---- 9------11------ 7--|
D|------------------------|------------------------|
A|------------------------|----------------------12|
E| 0----11--------10------| 9------ 8------ 7------|
http://classicalguitartablature.blogspot.com/
E|------ 9------ 9--------|------------------------|
B|-- 9------ 9------10----|14------12------10---- 9|
G|---- 9------ 9------ 9--|--14------11------11----|
D|------------------------|----14------ 9------ 9--|
A|--------11------ 9------|------------------------|
E|------------------------|12------11------10------|
http://classicalguitartablature.blogspot.com/
E|-------------- 4--------| 4------ 5---- 2--------|
B|------ 9---------- 5----|-- 5------ 7------ 3-- 5|
G|-- 9------ 8-------- 6--|---- 6------ 5------ 4--|
D|---- 7------ 7----------|------------------------|
A|------------------------|------------------------|
E| 9---- 8------ 7--------| 6------ 5---- 4------ 3|
http://classicalguitartablature.blogspot.com/
E|---------------- 0------|-- 0------------------12|
B|-------- 5------ 3------| 0----------------------|
G|-- 4------ 3------ 2----| 1----------------------|
D|---- 3------ 2------ 3--|------------------------|
A|------------------------|------------------------|
E|-------- 2------ 1------| 0----------------------|
http://classicalguitartablature.blogspot.com/
E|------12------12--------|12----11------10------ 9|
B|--12------12------12----|-- 9------10------ 9----|
G|----11------11------11--|---- 9------11------ 7--|
D|------------------------|------------------------|
A|------------------------|----------------------12|
E| 0----11--------10------| 9------ 8------ 7------|
http://classicalguitartablature.blogspot.com/
E|------ 9------ 9--------|------------------------|
B|-- 9------ 9------10----|14------12------10---- 9|
G|---- 9------ 9------ 9--|--14------11------11----|
D|------------------------|----14------ 9------ 9--|
A|--------11------ 9------|------------------------|
E|------------------------|12------11------10------|
http://classicalguitartablature.blogspot.com/
E|-------------- 4--------| 4------ 5---- 2--------|
B|------ 9---------- 5----|-- 5------ 7------ 3-- 5|
G|-- 9------ 8-------- 6--|---- 6------ 5------ 4--|
D|---- 7------ 7----------|------------------------|
A|------------------------|------------------------|
E| 9---- 8------ 7--------| 6------ 5---- 4------ 3|
http://classicalguitartablature.blogspot.com/
E|---------------- 0------|-- 0--------------------|
B|-------- 5------ 3------| 0----------------------|
G|-- 4------ 3------ 2----| 1----------------------|
D|---- 3------ 2------ 3--|------------------------|
A|------------------------|------------------------|
E|-------- 2------ 1------| 0----------------------|
http://classicalguitartablature.blogspot.com/

0 ความคิดเห็น:

แสดงความคิดเห็น