To celebrate the anniversary, I am giving you (finally...) : iPhone LickByNeck !!!!!!

Satin doll

Crooner's favorite fingerstyle chord melody guitar arrangement played in the key of G
http://classicalguitartablature.blogspot.com/

http://classicalguitartablature.blogspot.com/
Satin Doll played in the key of G.
http://classicalguitartablature.blogspot.com/
E|--------------------------------|--------------------------------|
B| 5---- 5---- 3------ 5----------|---- 5------ 5 3---- 5-------- 7|
G| 5-- 7------ 5------ 5----------|---- 5 7------ 5---- 5----------|
D| 5---------- 4------ 4-- 4------|---- 5---------- 4-- 4-------- 7|
A|------------ 5------ 5----------|---------------- 5-- 5----------|
E| 5------------------------------| 5---------------------------- 7|
http://classicalguitartablature.blogspot.com/
E|--------------------------------|--------------------------------|
B|------ 7---- 5------ 7----------|---- 7-------- 5---- 7----------|
G| 7 9-------- 7------ 7-- 7------|---- 7 9-- 7-- 7---- 7----------|
D|------------ 6------ 6----------|---- 7-------- 7---- 6----------|
A|-------------- 7---- 7----------|-------------- 7---- 7----------|
E|--------------------------------| 7------------------------------|
http://classicalguitartablature.blogspot.com/
E|-------------------- 5----------|--------------------------------|
B|----10-------- 8---- 8----------|---- 6-------- 4---- 6----------|
G|---- 7-------- 6----------------|---- 6-------- 5---- 5----------|
D|---- 9-------------- 5----------|------ 4------ 4---- 4----------|
A| 7------------------------------| 6------------------------------|
E|---------------- 5---------- 5--|-------------- 4----------------|
http://classicalguitartablature.blogspot.com/
E|--------------------------------|--------------------------------|
B|---- 3-------------- 3----------|---- 3------ 8---------- 3---- 5|
G|---- 4-------------- 4----------|---- 2------ 7---------- 4---- 5|
D|---- 4-------------- 2----------|---- 4------ 6---------- 3---- 5|
A|------------ 0-- 3------------ 2|------------ 7------------------|
E| 3------------------------------|------------------------ 4---- 5|
http://classicalguitartablature.blogspot.com/
E|--------------------------------|------------------------------ 6|
B|------ 5---- 3------ 5-------- 5|------ 5------ 3---- 5----------|
G|---- 7------ 5------ 5 5------ 5|---- 7-------- 5---- 5----------|
D|------------ 4------ 4-------- 5|-------------- 4---- 4-------- 7|
A|------------ 5------ 5----------|-------------- 5---- 5-------- 7|
E|------------------------------ 5|------------------------------ 6|
http://classicalguitartablature.blogspot.com/
E|--------------------------------|--------------------------------|
B| 7------ 7-- 5------ 7----------| 7------ 7-- 5------ 7----------|
G| 7-- 9------ 7------ 7-- 7------| 7-- 9------ 7------ 7----------|
D|------------ 6------ 6----------| 7---------- 6------ 6-- 6------|
A|------------ 7------ 7----------|------------ 7------ 7-------- 7|
E|--------------------------------| 7------------------------------|
http://classicalguitartablature.blogspot.com/
E|-------------------- 5----------|--------------------------------|
B|----10---------- 8-- 5------ 6--|---- 6------ 4------ 6-------- 3|
G|---- 7---------- 6-- 6------ 6--|---- 6------ 5---- 5---------- 4|
D|---- 9---------- 5---------- 4--|---- 4------ 4------ 4-------- 4|
A|---------------------------- 6--|---- 6--------------------------|
E|---------------- 5--------------|------------ 4---------------- 3|
http://classicalguitartablature.blogspot.com/
E|--------------------------------|--------------------------------|
B|---- 3------ 3 3---- 3------ 3--|-------------- 7----------------|
G|---- 4------ 3 3---- 3------ 4--|-------------- 7----------------|
D|---- 4------ 2 2---- 2------ 4--|-------------- 5-------------- 7|
A|------------ 3 3---- 3----------|------------------------ 6---- 5|
E|---------------------------- 3--|-------- 5------ 7--------------|
http://classicalguitartablature.blogspot.com/
E|--------------------------------|-------------------------- 3----|
B| 8-- 6 6---- 3------ 5 6 7-- 8--|-- 6-- 5-- 3------ 5-- 6-- 5----|
G| 5-- 5 5---- 4-------------- 5--|-- 5-- 5-- 4-------------- 4----|
D|------ 5---------- 3-------- 7--|-- 7-- 5-- 3--------------------|
A|---------------------------- 5--|-- 4------------------------ 3--|
E|------------ 3------------------|------------ 3------------------|
http://classicalguitartablature.blogspot.com/
E|--------------------------------|---- 3--------------------------|
B|------ 6------ 8---- 6------ 5--|---- 5--------------------------|
G|------ 5------ 7---- 5------ 4--|--------------------------------|
D|-- 5-- 7------ 9---- 7------ 5--|------ 5---- 5---------------- 9|
A|------ 5------ 7---- 5------ 3--|------------------------------ 7|
E|--------------------------------|-------------- 3------ 5---- 7--|
http://classicalguitartablature.blogspot.com/
E|--------------------------------|------------------------------ 5|
B|10-- 8 7---- 5---- 7-- 8--10----|-- 8-- 7-- 5------ 7-- 8------ 5|
G| 7---------- 6------------ 7----|-- 7------ 6------------------ 5|
D|------------ 5------------ 9----|-- 9-- 7-- 5--------------------|
A|-------------------------- 7----|--------------------------------|
E|------------ 5------------------|---------- 5------------------ 5|
http://classicalguitartablature.blogspot.com/
E|--------------------------------|---- 7------ 5------------------|
B|--------------------------------|---- 5------ 5-- 8-- 5------ 5--|
G|--------------------------------|---- 5------ 5-- 5-- 5-------- 5|
D|--------------------------------|---------------- 5-- 5------ 5--|
A|---------------------- 7------ 5|--------------------------------|
E|------ 7------ 8----------------|---------------------------- 5--|
http://classicalguitartablature.blogspot.com/
E|--------------------------------|--------------------------------|
B|------ 5---- 3------ 5-------- 5|------ 5---- 3------ 5-------- 7|
G|---- 7 5---- 5------ 5 5------ 5|---- 7------ 5------ 5 5------ 7|
D|------------ 4------ 4-------- 5|------------ 4---------------- 7|
A|------------ 5------ 5----------|------------ 5------ 5----------|
E|------------------------------ 5|------------------------------ 7|
http://classicalguitartablature.blogspot.com/
E|--------------------------------|--------------------------------|
B|-------- 7---- 5---- 7----------| 7------ 7-- 5------ 7----------|
G|---- 9------ 7------ 7-- 7------| 7-- 9 7---- 7------ 7-- 7------|
D|------------ 6------ 6----------| 7---------- 6------ 6----------|
A|------------ 7------ 7----------|------------ 7------ 7-------- 7|
E|--------------------------------| 7------------------------------|
http://classicalguitartablature.blogspot.com/
E|-------------------- 5----------|--------------------------------|
B|----10---------- 8-- 8----------|---- 6-------- 4---- 6----------|
G|---- 7---------- 6-- 6----------|---- 6-------- 5---- 5----------|
D|---- 9---------- 5--------------|---- 4-------- 4---- 4----------|
A|------------------------------ 6|--------------------------------|
E|---------------- 5--------------|-------------- 4-------------- 3|
http://classicalguitartablature.blogspot.com/
E|--------------------------------|--------------------------------|
B|---- 3---------- 3-- 3------ 3--|---- 3------ 8-------- 3--------|
G|---- 4---------- 4-- 4------ 2--|---- 2------ 7-------- 4--------|
D|---- 4---------- 2-- 2------ 4--|---- 4------ 6-------- 3--------|
A|---------------- 3---------- 2--|---- 2------ 7---------------- 7|
E|--------------------------------|---------------------- 4--------|
http://classicalguitartablature.blogspot.com/
E|-------------------- 5----------|--------------------------------|
B|----10-------- 8---- 8----------|---- 6-------- 4---- 6----------|
G|---- 7-------- 7---- 6----------|---- 6-------- 6---- 5----------|
D|---- 9-------- 6----------------|---- 4-------- 5---- 4----------|
A|------------------------------ 6|--------------------------------|
E|-------------- 6---- 5----------|-------------- 5---- 4----------|
http://classicalguitartablature.blogspot.com/
E|--------------------------------|--------------------------------|
B| 3------------------------------|--------------------------------|
G| 2------------------------------|--------------------------------|
D| 2------------------------------|--------------------------------|
A|--------------------------------|--------------------------------|
E| 3------------------------------|--------------------------------|
http://classicalguitartablature.blogspot.com/

0 ความคิดเห็น:

แสดงความคิดเห็น