To celebrate the anniversary, I am giving you (finally...) : iPhone LickByNeck !!!!!!

Segalanya Ku Terima (Basic)

Malaysian ballad fingerstyle solo guitar arrangement played in the key of Em.
http://classicalguitartablature.blogspot.com/
You need to install the Flash plugin - http://www.webestools.com/

http://classicalguitartablature.blogspot.com/
A Song For You - The Carpenters - BASIC ARRANGEMENT played in the key of Dm
http://classicalguitartablature.blogspot.com/
E|---------------- 2--------------|---------------- 2--------------|
B| 3---------- 3------ 3----------|------------ 3------ 3----------|
G| 0------ 0-------------- 0------|-------- 0-------------- 0------|
D|---- 4---------------------- 4--|---- 4---------------------- 4--|
A|--------------------------------|--------------------------------|
E| 0------------------------------| 0---------------------------- 0|
http://classicalguitartablature.blogspot.com/
E| 0-- 0-- 2-- 3-- 3-- 2-- 0------| 0-- 0-- 2-- 3-- 3-- 2-- 0------|
B| 0-- 0------ 0-- 0-- 0-- 0------| 0-- 0-- 0-- 0-- 0-- 0-- 0------|
G| 0-- 0-- 2-- 4-- 4-- 2-- 0------| 0-- 0-- 2-- 4-- 4-- 2-- 0------|
D|--------------------------------|--------------------------------|
A|---------------------------- 2--|------------------------------ 5|
E|--------------------------------| 0-------------------------- 0--|
http://classicalguitartablature.blogspot.com/
E|-------- 0-- 2 2---- 0---- 0----|--------------------------------|
B| 3-- 3---------------- 3-- 3----| 0---------- 0-- 3-- 0----------|
G| 0-------------------------- 0--|-------- 0-------------- 0------|
D| 4------------------------------|---- 4--------------------------|
A|---------------------------- 0--|---------------------------- 2--|
E|--------------------------------| 0---------------------------- 0|
http://classicalguitartablature.blogspot.com/
E| 0-- 0-- 2-- 3-- 3-- 2-- 0------| 0-- 0-- 2-- 3-- 3-- 2-- 0------|
B| 0-- 0------ 0-- 0-- 0-- 0------| 0-- 0-- 0-- 0-- 0-- 0-- 0------|
G| 0-- 0-- 2-- 4-- 4-- 2-- 0------| 0-- 0-- 2-- 4-- 4-- 2-- 0------|
D|--------------------------------|--------------------------------|
A|---------------------------- 2--|------------------------------ 5|
E|--------------------------------| 0-------------------------- 0--|
http://classicalguitartablature.blogspot.com/
E|-------- 0-- 2 2---- 0---- 0----| 0------------------------------|
B| 3-- 3---------------- 3-- 3----| 3---------- 3-------- 0--------|
G| 0-------------------------- 0--|-------- 0---- 0------------ 0--|
D| 4------------------------------|---- 4-------------- 4----------|
A|---------------------------- 0--|--------------------------------|
E|--------------------------------| 0------------------------------|
http://classicalguitartablature.blogspot.com/
E| 7------------------------------|--------------------------------|
B| 7----------10-- 8-- 7------ 7--| 8---------- 8------------------|
G| 8------ 8------ 8------ 9 8----| 9------ 9----------------------|
D|---- 7---------- 7--------------|----10--------------10-- 9------|
A|--------------------------------|--------------------------------|
E| 7-------------- 7--------------| 8-------------- 8---------- 8--|
http://classicalguitartablature.blogspot.com/
E| 7------------------------------|--------------------------------|
B| 7----------10-- 8-- 7------ 7--| 8---------- 8------------------|
G| 8------ 8------ 8------ 9 8----| 9------ 9----------------------|
D|---- 7---------- 7--------------|----10--------------10-- 9------|
A|--------------------------------|--------------------------------|
E| 7-------------- 7--------------| 8-------------- 8---------- 8--|
http://classicalguitartablature.blogspot.com/
E| 7------------------------------| 3-------------- 3-- 2-- 0------|
B| 7----------10-- 8-- 7------ 7--| 1---------- 1-- 0---------- 0--|
G| 8------ 8------ 8------ 9 8----| 0------ 0------ 0--------------|
D|---- 7---------- 7--------------|---- 2--------------------------|
A|--------------------------------| 3-------------- 3--------------|
E| 7-------------- 7--------------|--------------------------------|
http://classicalguitartablature.blogspot.com/
E| 0------------------------------|--------------------------------|
B|------------ 3-------------- 3--|------------ 3------------------|
G|-------- 0-------------- 0------|------ 0---------------- 0------|
D|---- 4-------------- 4----------|---- 4-------------- 4----------|
A|--------------------------------|--------------------------------|
E| 0-------------- 0--------------| 0-------------- 0---------- 3--|
http://classicalguitartablature.blogspot.com/
E|------------ 0-- 0---------- 0--|--------------------------------|
B| 1------ 3------ 1-- 3-- 1------| 0------------------------------|
G| 0------ 0------ 0-- 0-- 0------|-------- 0-------------- 0------|
D| 2-- 2-------------- 2-- 2------|---- 2-------------- 2----------|
A| 0-------------- 0--------------|------------------------------ 5|
E|--------------------------------| 0---------- 0-- 0---------- 0--|
http://classicalguitartablature.blogspot.com/
E|--------------------------------|--------------------------------|
B|---------------------------- 3--| 0-------------------------- 0--|
G| 2-- 2-- 2-- 2-- 2---- 0---- 0--| 0------ 0-------------- 0-- 0--|
D| 4---------- 4-- 4---------- 4--|---- 0-------------- 0------ 0--|
A|------------ 0-- 5---------- 0--|------------ 5-------------- 5 0|
E|--------------------------------| 3-------------- 3--------------|
http://classicalguitartablature.blogspot.com/
E|------------ 0-- 0-- 0-- 2-- 3--| 2-- 0---------------------- 0--|
B| 1-- 1-- 3-- 1-- 1---------- 1--| 0-- 0---------------------- 0--|
G| 0---------- 0-- 0---------- 0--| 0---------------------- 0-- 0--|
D| 2------------------------------|-------- 0---------- 0----------|
A|------------ 0-- 0---------- 0--|------------ 2-------------- 2--|
E|--------------------------------| 0------------ 0----------------|
http://classicalguitartablature.blogspot.com/
E| 2------ 2-- 3-- 5---- 3---- 5--| 2------------------------------|
B| 4------ 4-- 4-- 4---- 4---- 4--| 0---------------------- 0------|
G| 2-- 2---------- 2---- 2--------| 2------ 2----------------------|
D|--------------------------------|---- 1-------------- 1----------|
A| 2-------------- 2--------------| 2-------------- 2--------------|
E|------------ 2-------------- 2--|------------ 2-------------- 2--|
http://classicalguitartablature.blogspot.com/
E| 7------------------------------|--------------------------------|
B| 7----------10-- 8-- 7------ 7--| 8---------- 8------------------|
G| 8------ 8------ 8------ 9 8----| 9------ 9----------------------|
D|---- 7---------- 7--------------|----10--------------10-- 9------|
A|--------------------------------|--------------------------------|
E| 7-------------- 7--------------| 8-------------- 8---------- 8--|
http://classicalguitartablature.blogspot.com/
E| 7------------------------------|--------------------------------|
B| 7----------10-- 8-- 7------ 7--| 8---------- 8------------------|
G| 8------ 8------ 8------ 9 8----| 9------ 9----------------------|
D|---- 7---------- 7--------------|----10--------------10-- 9------|
A|--------------------------------|--------------------------------|
E| 7-------------- 7--------------| 8-------------- 8---------- 8--|
http://classicalguitartablature.blogspot.com/
E| 7------------------------------| 3-------------- 3-- 2-- 0------|
B| 7----------10-- 8-- 7------ 7--| 1---------- 1-- 0---------- 0--|
G| 8------ 8------ 8------ 9 8----| 0------ 0------ 0--------------|
D|---- 7---------- 7--------------|---- 2--------------------------|
A|--------------------------------| 3-------------- 3--------------|
E| 7-------------- 7--------------|--------------------------------|
http://classicalguitartablature.blogspot.com/
E|--------------------------------|--------------------------------|
B| 5-------------------------- 5--|---------------------------- 5--|
G| 4------ 4-------------- 4------|-------- 4-------------- 4------|
D|---- 5-------------- 5----------|---- 5------------ 5------------|
A|--------------------------------| 5---------- 5-- 5--------------|
E| 0---------- 0-- 0--------------|--------------------------------|
http://classicalguitartablature.blogspot.com/
E|--------------------------------|--------------------------------|
B|---------------- 0--------------|---------- 0--------------------|
G|---------- 0--------------------|---- 0--------------------------|
D|---- 2---------------------- 2--|--------------------------------|
A| 4-------------------- 3--------|--------------------------------|
E|--------------------------------|--------------------------------|
http://classicalguitartablature.blogspot.com/
E|--------------------------------|--------------------------------|
B|---------- 0--------------------|--------------------------------|
G|-------- 0----------------------|--------------------------------|
D|------ 2------------------------|--------------------------------|
A|-- 2----------------------------|--------------------------------|
E|--------------------------------|--------------------------------|
http://classicalguitartablature.blogspot.com/

0 ความคิดเห็น:

แสดงความคิดเห็น